Sixpence None The RicherThere She Goes Текст

0 Голосов
T1: khoo, khoo33@hotmail.com, Sixpence None The Richer, There She Goes,
?/?/?

S1: I have no idea when the song was released but it's been playing on
the airwaves
recently so I guess it's pretty new and so far this is the only one
with
all the riffs and stuff., Sixpence None The Richer
There She Goes

G D C9 C Am
320033 xx0232 x32030 x32010 x02210

Capo 3rd fret

Intro x2
G D C9 C9

G D C9 C9
There she goes

G D C9 C9
There she goes a-gain

G D C9 C9
Running through my brain and

Am C
I just can't con-tain

Am C D
This feelin that re-mains


G D C9 C9
There she blows

G D C9 C9
There she blows a-gain

G D C9 C9
Pulsing through my vein

Am C
I just can't con-tain this

Am C D
feelin that re-mains

Interlude

riff 1 x3 (2nd round riff 5 comes in)
e|-6---8---5---3---3---3---6----|
B|---6---6---6---6---6---6---6--|
G|------------------------------|
D|------------------------------|
A|------------------------------|
E|------------------------------|

riff 5
e|---------------------------------|
B|---------------------------------|
G|---------------------------------|
D|-8-8-8-8-7-7-7-7-5-5-5-5-3-3-3-3-|
A|---------------------------------|
E|---------------------------------|

riff 2 x1
e|-----6---6---6---5-5-5-5-5----|
B|-6s8---8---8-----6-6-6-6-6----|
G|-----------------5-5-5-5-5----|
D|------------------------------|
A|------------------------------|
E|------------------------------|

riff x3
e|-----6---8-6------------------|
B|-6s8---8-----8----------------|
G|------------------------------|
D|------------------------------|
A|------------------------------|
E|------------------------------|
repeat verse while playing riff 1, 2 and 3
There she goes
There she goes again
Racing through my brain
And I just can't contain
This feeling that remains

strum G and C chords here once
There she goes
There she goes again

drums and everything else picks up here
She calls my name She pulls my train
No on else can heal my pain

play riff 4 and then riff 2 here
riff 4
e|-6s8-8-8-8-8-6-3-8-8-6-8b10-8-6-|
B|--------------------------------|
G|--------------------------------|
D|--------------------------------|
A|--------------------------------|
E|--------------------------------|
And I just can't contain
This feelin that remains

There she goes
There she goes again
Chasing down my lane
And I just can't contain
This feeling that remains

This song is quite simple to workout just listen to the song for
the strumming pattern and where which riff is played.

this is a work of khoo

Pls visit http://rubberband.cjb.net to see my bands homepage
You can find some tabs there too like save tonight and good
with solo's and all.
Proud to be Malaysian too
Другие песни: