Six Feet UnderWar Is Coming Текст

0 Голосов
Band: Six Feet Under

Album: Warpath
Song: War Is Coming

Copyright (c) Metal Blade Records 1997
Version 1.0 - 10/20/02

Transcribed By: Nik
Email: shatteredexistence@comcast.net


. - palm mute / - slide up to


Tuning D G C F A D

Riff 1- 10x

D|--------------------------------|
A|--------------------------------|
F|--------------------------------|
C|-----------------8-----7-----9--|
G|---------7/8-----6-----5-----7--|
D|-0-0-0-0-5/6-0-0---0-0---0-0----|
. . . . . . . . . .

Riff 2- 4x

D|-----------------------------|
A|-----------------------------|
F|-----------------------------|
C|-----------------------------|
G|---------3------6----5----8--|
D|-0-0-0-0-1--0-0-4--0-3--0-6--|
. . . . . . . .

Riff 1- 8x

Riff 2- 4x

Riff 3a- 4x

D|-------------------------|
A|-------------------------|
F|-------------------------|
C|----------7--------------|
G|-2---5--5-5--5--5-8---3--|
D|-0---3--3----3--3-6---1--|

Riff3b- 4x

D|--------------------------|
A|--------------------------|
F|--------------------------|
C|----------7---------------|
G|-2---5--5-5---5--5-8---3--|
D|-0---3--3-----3--3-6---1--|
. . . .

Riff 1- 8x

Riff 2- 11x

Outro- 1x

D|-------------------------------|
A|-------------------------------|
F|-------------------------------|
C|-------------------------------|
G|---------3------6---5---8---2--|
D|-0-0-0-0-1--0-0-4---3---6---0--|
. . . . . .
Другие песни: