Six Feet UnderDay The Dead Walked Текст

0 Голосов
Song Title: the day the dead walked

Artist: six feet under
Submitted by: mike downes

six feet under uses 7 string guitars

INTO
trembal pic
E|------------------------|
B|------------------------|
G|------------------------|
D|------------------------|
A|-----7--6-----5---------|
E|--5--------7------6-----|
A|------------------------|

VERSE
trembal pic
E|--------------------|---------------------|--------|
B|--------------------|---------------------|--------|
G|--------------------|---------------------|--------|
D|--------------------|---------------------|--------|
A|-----7--6-----5-----|-----9-----8----7----|--------|
E|--5--------7-----6--|--7-----9-----8------|--8^----|
A|--------------------|---------------------|--------|


RRE CHORUS
E|------------------------|----------------------|
B|------------------------|----------------------|
G|------------------------|----------------------|
D|------------------------|----------------------|
A|------------------3--4--|----------------------|
E|-0--3-2--0--6--2--1--2--|-0--3-2--0--6--0--2-3-|
A|-0--3-2-----6--2--------|-0--3-2-----6--0--2-3-|

this song is kinda easy but its a sweet song by a sweet band so have
fun with it. and if u have any questions e-mail me at
XGuitarMasterxX@aol.com
Другие песни: