Sisters of MercyLucretia My Reflection Текст

0 Голосов
Bass riff (acoustic): 
|----------------------------------------------------------------|
|----------------------------------------------------------------|
|---------------------------------------------4----2---2-------4-|
|---2---2---2---2---2---2---2---0---5---5-3p2----0---0---0-3p2---|
|-0---0---0---0---0---0---0---0---3---3--------------------------|
|----------------------------------------------------------------|

Guitar riff (acoustic):
|-----------------------------------------------------------------|
|-----------------------------------------------------------------|
|-----7---7-----------7---7-----------5---5-----------7---7-------|
|---7-------7---7---7-------7---7---5-------5---5---7-------7---7-|
|-0-----0-----0---0-----0-----0---3-----3-----3---5-----5-----5---|
|-----------------------------------------------------------------|
Другие песни: