SilverchairDo You Feel The Same Текст, аккорды

0 Голосов
E---------------------------------------I

B--7-(7)---7^-(7)-----------------------I
G--7-(7)---7^-(7)h5---5---------5^(1/4)-I
D------------------------7-7------------I
A-------------------7-------------------I
E---------------------------------------I

E----------------------------------------------------------5---------I
B------------------------------------------------8---5-8^----8-------I
G---------------------------------------5^-5-7-7^--7-----------5~~~--I
D--------------------------5---5-7-5-7-------------------------------I
A--------3---3-5-3-5-7-5-7---7---------------------------------------I
E--5-3-5---5---------------------------------------------------------I

E--------------------------------------------------------------------I
B--------------------------------------------------------------------I
G--(5)~~~-7----------------------------------------------------------I
D------------5/7----------------------5-5---5h7-----3---3------------I
A----------------6----------------5h7-----7--------------------------I
E------------------5-7-(7)-5-(5)------------------------------------I

E--------------------------------------------------------------------I
B--------------------------------------------------------------------I
G--------------------------------------------------5-7^-(7)-5--------I
D--(3)--(3)/---7------------7-----------------5h7-7------------------I
A----------------6-----5-7----6-----5-7--5h7-7-----------------------I
E------------x-----5-8----------5-8----------------------------------I

E--------------------------------------------------------------------I
B--------------------------------------------------------------------I
G--(5)---4-5-4-5h4---------------------------------------------------I
D-----------------5h7/5-----(5)-------------------------------------I
A--------------------------------------------------------------------I
E--------------------------------------------------------------------I
Другие песни: