Sick Of It AllMy Revenge Текст, аккорды

0 Голосов
------------------------------------------------------------------------------- 

MY REVENGE - Sick Of It All
-------------------------------------------------------------------------------

By: Punk Rock Bob ( Mickey_Mouse_Is_Dead@punkhardcore.net )

INTRO (part before stars x 4 then move on)
e|-------------*-------------------------------------------------------------|
B|-------------*-------------------------------------------------------------|
G|------9-8888-*-------------------------------------------------------------|
D|--777-9-8888-*--7777-10-6-6-6-66-6-----------------------------------------|
A|--777-7-6666-*--7777-10-6-6-6-66-6-----------------------------------------|
E|--555--------*--5555-8--4-4-4-44-4-----------------------------------------|
| ||
palm mute

VERSE
e|---------------------------------------------------------------------------|
B|---------------------------------------------------------------------------|
G|-----9999------------------------------------------------------------------|
D|--77-9999-77---------------------------------------------------------------|
A|--77-7777-77---------------------------------------------------------------|
E|--55------55---------------------------------------------------------------|

CHORUS
e|---------------------------------------------------------------------------|
B|---------------------------------------------------------------------------|
G|--99999999-----------------------------------------------------------------|
D|--99999999-----------------------------------------------------------------|
A|--77777777-----------------------------------------------------------------|
E|---------------------------------------------------------------------------|

OUTRO?
e|---------------------------------------------------------------------------|
B|---------------------------------------------------------------------------|
G|--2222-----------55-22-----------------------------------------------------|
D|--2222-3333-5555-55-44-----------------------------------------------------|
A|--0000-3333-5555-33-22-----------------------------------------------------|
E|-------1111-3333-----------------------------------------------------------|

CHORUS
e|---------------------------------------------------------------------------|
B|---------------------------------------------------------------------------|
G|--99999999-----------------------------------------------------------------|
D|--99999999-----------------------------------------------------------------|
A|--77777777-----------------------------------------------------------------|
E|---------------------------------------------------------------------------|

-------------------------------------------------------------------------------
Другие песни: