SiakolMaligayang pasko Текст

0 Голосов
Intro: C - G 
:---------------------------------------------------3-3-3--:
:---1--1-1/3-3/5--5-5-5-6-5-6-(5)-------------------3-3-3--:
:---------------------------------------------------0-0-0--:
:---3-----------------------------------------------0-0-0--:
:---------------------------------------------------2-2-2--:
:---------------------------------------------------3-3-3--:

C Am
Naitayo mo na ba ang christmas tree?
Dm G
May pang regalo ka na ba sa inaanak mong marami?
C Am
Naisabit mo na ba ang parol?
Dm G
Sa okasyong ito di ka na ba magagahol?
Em Am
At sa pagkakakataong ito kami naman ang babati
Em Am
Sana'y maibigan nyo ang mga kanta kung maaari
Em Am
Magpahinga muna at sumandal lang sandali
Dm G
Handa na ang aming tambol gitara at buong barkada

Koro:
C Am Dm G
Maligayang Pasko at manigong bagong taon sa inyo
C Am Dm G
Maligayang Pasko at manigong bagong taon sa inyo...oh!!!

:---------------------------------------------------3-3-3--:
:---1--1-1/3-3/5--5-5-5-6-5-6-(5)-------------------3-3-3--:
:---------------------------------------------------0-0-0--:
:---3-----------------------------------------------0-0-0--:
:---------------------------------------------------2-2-2--:
:---------------------------------------------------3-3-3--:

C Am
Naibili ka na ba ng damit na bago?
Dm G
May aginaldo ka na ba sa ninong at ninang mo?
C Am
Gawa na ba ang yong tambol na lata?
Dm G
Sa noche buena ba ay may kasalo kang pamilya?
Em Am
At sa pagkakataong ito kami naman ang aawit
Em Am
Bagong matututunan nyong mga batang paslit
Em Am
Itigil muna ang laro at samin ay lumapit
Dm G
Handa na ang aming tambol, gitara at buong barkada

Koro:
C - G
:---------------------------------------------------3-3-3--:
:---1--1-1/3-3/5--5-5-5-6-5-6-(5)-------------------3-3-3--:
:---------------------------------------------------0-0-0--:
:---3-----------------------------------------------0-0-0--:
:---------------------------------------------------2-2-2--:
:---------------------------------------------------3-3-3--:

C - Am - Dm - G
:---------------------7-5---(5)vvv-------------------------:
:-------(5)-5-5-5-(5)-----8--------------------------------:
:---5-7----------------------------------------------------:
:----------------------------------------------------------:
:----------------------------------------------------------:
:----------------------------------------------------------:

:-------------5VV---5VVV-----------------------------------:
:-----------------8------8VVV------------------------------:
:----4-5-7vvv----------------------------------------------:
:----------------------------------------------------------: 2X
:----------------------------------------------------------:
:----------------------------------------------------------:

Em Am
At sa pagkakataong ito magsama sama tayo
Em Am
Pagmamahal sa kapwa ilaganap sa mundo

Outro: Em
Другие песни: