ShinedownThe Crow & The Butterfly Текст

0 Голосов
INTRO X2:
e|-----------------------------------------|
B|------2--------2---------1---------1-----|
G|----2---2----2---2-----2---2-----2---2---|
D|---------------------3---------3---------|
A|--0--------0-----------------------------|
D|-----------------------------------------|

A F
I painted your room at midnight
A F
So I know yesterday was over
A F
I put all your books on the top shelf
C Bb C
Even the one with the four-leaf clover
Bb C Bb
Man I'm getting older

VERSE:
A F
I took all your pictures off the wall
A F
And wrapped 'em in a newspaper blanket
A F C
And i havent slept in what seems like a century
Bb Ab Bb
And now i can barely breathe

CHORUS:
Am C F
Just like the crow chasing the butterfly
Am C F
Dandelions lost in the summer sky
Am C F
when you and I were getting high as outer space
Dm F G
I never thought you would slip away
Dm F G
I guess I was just a little too late

Pre-verse: A F A F

VERSEL
A F
Your words still serenade me
A F
Your lullabies wont let me sleep
A F C
I never heard such a haunting melody
Bb C
Oh it's it's killing me
Bb Ab Bb
You know I can barely breathe

CHORUS:
Am C F
Just like the crow chasing the butterfly
Am C F
Dandelions lost in the summer sky
Am C F
when you and I were getting high as outer space
Dm F G
I never thought you would slip away
Dm F G
I guess I was just a little too late

SOLO:
X2
e|--------------------------------------------------|
B|--------------------------------------------------|
G|--8-8-8-8-8-8--8----------------------------------|
D|--8-8-8-8-8-8--8---8-----------3-3-3-3-3-3-3-3-3--|
A|--6-6-6-6-6-6--6---8-----------3-3-3-3-3-3-3-3-3--|
D|-------------------6----8-7-5--1-1-1-1-1-1-1-1-1--|

X1
e|--------------------------------------------------|
B|--------------------------------------------------|
G|--8-8-8-8-8-8--8--10-----------5-5-5-5-5-5-5-5-5--|
D|--8-8-8-8-8-8--8---8-----------5-5-5-5-5-5-5-5-5--|
A|--6-6-6-6-6-6--6---8-----------3-3-3-3-3-3-3-3-3--|
D|-------------------8----8-7-5---------------------|

CHORUS X2:
Am C F
Just like the crow chasing the butterfly
Am C F
Dandelions lost in the summer sky
Am C F
when you and I were getting high as outer space
Dm F G
I never thought you would slip away
Dm F G
I guess I was just a little too late

OUTTRO X2:
e|-----------------------------------------|
B|------2--------2---------1---------1-----|
G|----2---2----2---2-----2---2-----2---2---|
D|---------------------3---------3---------|
A|--0--------0-----------------------------|
D|-----------------------------------------|

A

Lead Solo:
e|--------------------|-13------------------|------------------------|
B|-15b(1/2)(15)--13-15|-13b(1)-13-11--13----|13----------------------|
G|--------------------|---------------12b(1)|12b(1)-----(12)-10--10--|
D|--------------------|---(bend on 1st 12 until 2nd 12)--------12----|
A|--------------------|---------------------|------------------------|
D|--------------------|---------------------|------------------------|

e|-----13--15--15b(1)-|-18--18b(1)-18--16----------------------------|
B|---13--13--13-------|------------------18--18-----18~~~~~~---------|
G|-14-----------------|--------------------17-----17-----------------|
D|--------------------|----------------------------------------------|
A|--------------------|----------------------------------------------|
D|--------------------|----------------------------------------------|

(bend til end of 15's)
e|--------------------|-15b(1)1515151515-13-16-13-|-17b(1/2)-15------|
B|-13-----------------|---------------------------|------------18p17-|
G|-12b(1)--10-8-10----|---------------------------|------------------|
D|--------------------|---------------------------|------------------|
A|--------------------|---------------------------|------------------|
D|--------------------|---------------------------|------------------|

* This goes pretty fast, takes a while to get it *
e|-R----|--------------------------------------1517------------------|
B|-E----|-----------------------8-11-10----1517-----20b(1)-----------|
G|-S----|----------------7-9/10--------10----------------------------|
D|-T----|--------7h8h9h10--------------------------------------------|
A|BEAT--|--7h8h10----------------------------------------------------|
D|-ONE--|------------------------------------------------------------|
Другие песни: