SevendustGrasp Текст

0 Голосов
Sevendust 

Grasp


tabbed by Jared

Riff1(gtr1)-Distortion
g-5-------------^17^5-^17^5--------------------------
e-5--------^17^5-----------------12-11--11-5----5---
b-5---^17^5--------------------------x---x-7---7-----
f-3---------------------------10-----9---95---------
B-3--------------------------------------------------

g-5-----------5-----------------------------
e-0--------0---0------12-11-----------------
b-5------5----------0-----0-----------------
f-3-----3--------------------3--5-5--b--r---
B-3---3-------------------------------------

Riff1(gtr2)-Clean
c-3--------------------------3--------------0---------
g--3-------------------3-------3--------3-----3-------
e---5---------5-------5--5-------5--------5-----5-----
b----3------3---3----3-----3-------0--------------0---
f-----3---3-------3-----------------------------------
B------3----------------------------------------------

c--------------------3-------------0---0---
g--------------3-------3---------1-----1---
e-5------5-------5-------5-----4-----4-----
b-5----3---3-------3-----------------------
f-3---3------------------------------------
B-3--3----------------------0--------------

Riff2-Distortion
e-4-2---41----------
b-0-0---00--xx-xx---
f-0-0---00--xx-xx---
B-0-0---00--xx-xx---

Riff3-Distortion
b-----------xx-xx- -----------xx-xx-------------------
f-0-0---00--xx-xx- -0-0---00--xx-xx0-0---00--333333---
B-0-0---00--xx-xx- -0-0---00--xx-xx0-0---00--333333---
* * ** ** ** * * ** ** *** * ** ******
Fill-Distortion
f-0-0---00--------
B-0-0---00--020---
* * ** *
Riff4-Distortion
B-3b----2b---

Riff5(gtr1)-Distortion
e-7--7-7-7-7-5--5-55/10-107--7-7-7-7-10--10-10-12-12-
b-x--x-x-x-x-x--x-xx--x--x-x--x-x-x-x--x---x--x--x--x-
f-5--5-5-5-5-3--3-33/8---85--5-5-5-5--8---8--8-10-10-

e-11--11-11-11-11-10--10-101012-127--7-7-7-7-5--5-5/7777---
b--x---x--x--x--x--x---x--x-x-x--x-x--x-x-x-x-x--x-x--xxx---
f--9---9--9--9--9--8---8--8-810-105--5-5-5-5-3--3-3/5555---

Riff5(gtr2)-Distortion
b-0--0-00--00-6--6-66--655-0--0-00--00-3--3-33--355---
f-0--0-00--00-6--6-66--655-0--0-00--00-3--3-33--355---
B-0--0-00--00-6--6-66--655-0--0-00--00-3--3-33--355---

Fill-Distortion
e-7--7-7-7-7-5--5-55/12-127--7-7-7-7-5--55-55777-7777---
b-x--x-x-x-x-x--x-xx--x--x-x--x-x-x-x-x--xx-xxxxx-xxxx---
f-5--5-5-5-5-3--3-33/10-105--5-5-5-5-3--33-33555-5555---

Riff6(gtr1)-Distortion (when recalled omit all pm's except single notes)
g------3------------1----------
e------5------7-----3------7---
b-------------x------------x---
f-00-----00--05-000---00--05---
B-00-----00--0--000---00--0----
** ** * *** ** *
Riff6(gtr2)-Distortion (same goes for this riff)
e------------87-----------7/10-----------107-----------7/10---
b------------x-------------x---------------x-------------x------
f-00----00--065000---00--05/8-00----00--0-85000---00--05/8----
B-00----00--0---000---00--0----00----00--0----000---00--0-------
** ** * *** ** * ** ** * *** ** *
Riff7(gtr1)-wah as filter
c-----10---10----10---10---
g---------------------13---
e--------13----13---13-----
b-12-----------------------

Riff7(gtr2)-wah as filter
e-7--77/88--88-88---
b-x--xx--x--xx-xx---
f-5--55/66--66-66---

Riff7(gtr3)-Distortion
e-55555555577777777/111111111111111112121212121212---
b-xxxxxxxxxxxxxxxxx--x-x-x-x-x-x-x-x-x-x-x-x-x-x-x---
f-33333333355555555/9--9-9-9-9-9-9-910101010101010---

Fill(gtr1)-Distortion
g--------------------------------------------------
e-7--7-7-7-7-10--10-101012-1212x11-x1111x1111x11/12
b-x--x-x-x-x--x---x--x-x-x--x-xx-x-x-x-xx-x-xx-x---
f-5--5-5-5-5--8---8--8-810-1010x-9-x-9-9x-9-9x-9/10

g---------------------------------------------0-------
e-x14-x1414x1412x1211x11-x11/12x12/14--16--16-------
b-x-x-x-x-xx-x---x-x---x-x-x-x---x-x------x-----------
f-x12-x1212x1210x109-x-9-x-9/10x10/12--12------12---
Другие песни: