Серый китСерый кит Текст, аккорды

0 Голосов
Вступление (Куплет):
E|----------------0----------|
B|----3----------------------|
G|--0----------2-------------|
D|----------0----------------|
A|3--------------------------|
E|---------------------------|

E|--------------------------|
B|--------------------------|
G|--------------------------|
D|----5-2-------------------|
A|--2-----5-2--5-2-5--------|
E|-0------------------------|

Припев и соло на одной гармонии:
E|----------------------------------------------|
B|----------------------------------------------|
G|-------7777-------9999------------------------|
D|--55555555---77777777----99999999--99999999---|
A|--33333333---55555555----77777777--77777777---|
E|----------------------------------------------|

Куплет 1:
Ты один под водой
20 лет без света и окрас стал серым.
Яркий взрыв бомбы той
Уничтожил планету и разрушил стены…

Припев:
Серый кит, ты один теперь в тихой заводи.
Серый кит, навсегда со мной в моей памяти.

Куплет 2:
Столько лет под землей
В ожидании шанса приблизиться к солнцу.
Ты все звал, но сигнал,
Что к цели стремиться, становится тише…

Припев:
Серый кит, ты один теперь в тихой заводи.
Серый кит, навсегда со мной в моей памяти.

Пост-припев:
Серый кит, ты не выдумка моей памяти,
Я с тобой до конца!
Серый кит, ты нашел покой в тихой заводи,
Я с тобой…
Другие песни: