Serj TankianSky Is Over Текст

0 Голосов
Intro:
E|------------------------------------44444-3------|
B|-----44444-3---------44444-3----------------6----|
G|-------------5---------------5----------------5--| }x2
D|---------------5---------------5-3---------------|
A|--3---------------3------------------------------|
E|-------------------------------------------------|

E|-------------------|
B|------4-------1----|
G|------5-------1----|
D|------6-------3----|
A|----6---6---3---3--|
E|--4-------1--------|

Verse1:
Cm Fm (ver1)
Everybody knows, everybody knows
Ab Fm (ver2) Cm
That you cradle the sun, sun
Fm (ver1)
Living in remorse,
Ab Fm (ver2)
Sky is over
Bb Cm
Don't you want to hold me baby?

D|-------------------|
A|--6-6-6-6-5-5-5-5--|
Bb E|--6-6-6-6-5-5-5-5--|
Disappointed... going crazy...

Chorus:
Gm
Even though we can't afford
Eb D
The sky is over
Gm
Even though we can't afford
Eb D
The sky is over
Gm
I don't want to see you Go
Eb D
The sky is over
Gm
Even though we can't afford
Eb D
The sky is over

Verse2:
Cm
Behind closes eyes lie
The minds ready to awaken you,
Fm (ver1)
Are you at war with land
Ab Fm (ver2)
And all of its creatures,
Cm
Your not-so-gentle persuasion
Has been known to wreck economies
Fm (ver1) Ab Fm (ver2)
Of countries, of empires, the sky is over,
Bb Cm
Don't you want to hold me baby?
D|-------------------|
A|--6-6-6-6-5-5-5-5--|
Bb E|--6-6-6-6-5-5-5-5--|
Disappointed... going crazy...

Piano section:
[this is a fast piano solo difficult to play on guitar,
so just use chords: Cm Fm (ver1)]

Bb Cm
Not even from the sun,
Bb Cm
Not even from the sun,
Bb Cm
Not even from the sun,
D|-------------------|
A|--6-6-6-6-5-5-5-5--|
Bb E|--6-6-6-6-5-5-5-5--|
Don't you want me to run?

Chorus:
E|--6-5-6---6-5-6----|
B|--------8-------8--|
G|-------------------|
Even though we can't afford
Eb D
The sky is over
Gm
Even though we can't afford
Eb D
The sky is over
Gm
I don't want to see you Go
Eb D
The sky is over
Gm
Even though we can't afford
Eb D
The sky is over
Gm
I don't want to see you Go
Eb D
The sky is over
Gm
Even though we can't afford
Eb D
The sky is over
Gm
I don't want to see you Go
Eb D
The sky is over
Gm
Even though we can't afford
Eb D
The sky is over
Eb D Gm
Sky is over us.
Другие песни: