Sergey EyebogMiku's song (OST "Everlasting Summer") Текст

0 Голосов
Можно играть целыми аккордами: 
G#m Cm C# D# G#m Cm C# D#
E|-------------------------------------------------------------------------------------
B|-----------------4--------6---------8--------------------------4--------6----------8-
G|-----5----------5--------6-----------8--------------5---------5--------6----------8--
D|-----6----------5--------6---------------------------6---------5--------6----------8-
A|-----6------3---------4--------6--------------------6------3-------4-----------6-----
E|--4-----------------------------------------------4----------------------------------

Вступает Мику:
G#m Cm C# D# G#m Cm C# D#
E|--------------------------------------------------------------------------------------
B|-----------------4--------6---------8---------------------------4--------6----------8-
G|-----6----------5--------6-----------8---------------6---------5--------6----------8--
D|-----6----------5--------6----------------------------6---------5--------6----------8-
A|-----6------3---------4--------6---------------------6-----3-------4-----------6------
E|--4-----------------------------------------------4-----------------------------------


Fm Cm C# D# G#m Cm C# D#
E|----------------------------------------------------------------------------------
B|-----------------4---------6---------8----------------------------4--------6------
G|-----------------5---------6-----------8--------------6----------5--------6-------
D|-----3----------5---------6---------------------------6----------5--------6-------
A|-----3------3----------4--------6--------------------6------3-------4-----------6-
E|--1-----------------------------------------------4-------------------------------

G#m Cm C# D# G#m Cm C# D#
E|--------------------------------------------------------------------------------------
B|-----------------4--------6---------8---------------------------4--------6----------8-
G|-----6----------5--------6-----------8---------------6---------5--------6----------8--
D|-----6----------5--------6----------------------------6---------5--------6----------8-
A|-----6------3---------4--------6---------------------6-----3-------4-----------6------
E|--4-----------------------------------------------4-----------------------------------

Fm Cm C# D# G#m Cm C# D#
E|-------------------------------------------------------------------------------------
B|-----------------4---------6---------8----------------------------4--------6---------
G|-----------------5---------6-----------8--------------6----------5--------6----------
D|-----3----------5---------6-------------8------------6----------5--------6-----------
A|-----3------3----------4--------6--------------------6------3-------4--------------6-
E|--1-----------------------------------------------4----------------------------------
Другие песни: