СерьгаПривык, забыл и потерял Текст

0 Голосов
Intro:
Bb A7 Dm Dm/B Gm C F Am6(V)
1|------------------------------------------------------|
2|------------------------------------------------------|
3|---2----2---------2----2---------2----2---------------|
4|-3----3---3-2-3-3----3---3-2-3-3----3---3-2-2--3-2-1~-|
5|------------------------------------------------------|
6|------------------------------------------------------|

Gm A7 Dm Dm/B Bb A7
1|---------------------------------------------|
2|---------------------------------------------|
3|---2----2---------2----2---------2-----------|
4|-3----3---3-2-3|3----3---3-2-3|3--------3-2~-|
5|---------------------------------------------|
6|---------------------------------------------|

solo mute

Gm A7 Dm Dm/B
Мечтал, увидел, устремился
Gm C F Am6(V)
Спешил, ошибся, не достал
Gm A7 Dm Dm/B
Разбился вздребезги, добился
Bb A7
Привык, забыл и потерял

Gm A7 Dm Dm/B
1|----------------------------------|
2|-----8-10-------------------------|
3|-9-10-----10-10---------9------10-|
4|----------------------------------|
5|----------------------------------|
6|----------------------------------|
Нашел, поднял, протер и спрятал

Gm C F Am6(V)
1|----------------------------------|
2|-----8-10-------------------------|
3|-9-10-----10-10---------9------10-|
4|----------------------------------|
5|----------------------------------|
6|----------------------------------|
Закрыл, зарыл, припорошил

Gm A7 Dm Dm/B
1|----------------------------------|
2|-----8-10-------------------------|
3|-9-10-----10-10---------9------10-|
4|----------------------------------|
5|----------------------------------|
6|----------------------------------|
Не думал, не грешил, не лапал

Bb A7
1|--------------------------------|
2|---------------8----------------|
3|----10--10-------------------9--|
4|--------------------------------|
5|--------------------------------|
6|--------------------------------|
Поторопился, затушил

Gm C F
1|------------------------13---12---------|
2|-------11----11----11-11---11----11--10-|
3|-----10----10----10------------------10-|
4|----------------------------------------|
5|----------------------------------------|
6|----------------------------------------|
Уехал, улетел, вернулся

Gm C F Am6(V)
1|------------------------13---12-------------------------------------------|
2|10--10-11----11----11-11---11----11--10---10h11p10------------------------|
3|--10-------10----10------------------10-----------10h12p10----------------|
4|----------------------------------------------------------12-10-10/12--15-|
5|--------------------------------------------------------------------------|
6|--------------------------------------------------------------------------|
Приплыл, пришел, приковылял

Gm A7 Dm Dm/B
1|----------------------------------------------------|
2|------/10---13-10-----------10-------------/10------|
3|-10-12------------12--10-12-----10----10-12----10---|
4|-----------------------12--------------12-10-10/12--|
5|----------------------------------------------------|
6|----------------------------------------------------|
Устал, прилег, завис, очнулся

B A7
1|--------------------|
2|--------------------|
3|--/14-------109-----|
4|--------------------|
5|--------------------|
6|--------------------|
Завыл, залаял, замычал

Gm C F
1|------------------------13---12---------|
2|-------11----11----11-11---11----11--10-|
3|-----10----10----10------------------10-|
4|----------------------------------------|
5|----------------------------------------|
6|----------------------------------------|
Напился, протрезвел, умылся

Gm C F Am6(V)
1|------------------------13---12-------------------------------------------|
2|10--10-11----11----11-11---11----11--10---10h11p10------------------------|
3|--10-------10----10------------------10-----------10h12p10----------------|
4|----------------------------------------------------------12-10-10/12--15-|
5|--------------------------------------------------------------------------|
6|--------------------------------------------------------------------------|
Собрал, слепил, нарисовал

Gm A7 Dm Dm/B
1|----------------------------------------------------|
2|------/10---13-10-----------10-------------/10------|
3|-10-12------------12--10-12-----10----10-12----10---|
4|-----------------------12--------------12-10-10/12--|
5|----------------------------------------------------|
6|----------------------------------------------------|
Смеялся, спорил, вновь напился

1---------13--15--17--|
2---------------------|
3---------------------|
4---------------------|
5---------------------|
6---------------------|
Привык, забыл и потерял

Проигрыш:
Bb A7 Dm Dm/B Gm C F Am6(V)
1|------------------------------------------------------|
2|------------------------------------------------------|
3|---2----2---------2----2---------2----2---------------|
4|-3----3---3-2-3-3----3---3-2-3-3----3---3-2-2--3-2-1~-|
5|------------------------------------------------------|
6|------------------------------------------------------|

Gm A7 Dm Dm/B
Разбился вдребезги, добился
B A7 Bb A7
Привык, забыл и потерял

Bb A7 Bb A7
1|-----------------8---8--7--6--5--|
2|------8----8---8--8---8---8------|
3|--9/10--10---10-9---9---9--------|
4|-----------------10--10-9--8--7--|
5|---------------------------------|
6|---------------------------------|
Привык, забыл и потерял

Bb A7 B A7
1|-----------10---------9------5---5--4--3--1-----15~|
2|------8--------8--8-------8------------------------|
3|--9/10--10---10-9---9---9--------------------------|
4|-----------------------------7---7--6--5--3--------|
5|---------------------------------------------------|
6|---------------------------------------------------|
Привык, забыл и потерял
Другие песни: