SepulturaSpit Текст

0 Голосов
---------------------
***Spit--Sepultura***
---------------------

Written by Sepultura

5-string bass tuned down 1/2 step


INTRO RIFF:

G|--------------------------------------------------|
D|--------------------------------------------------|
A|--------------------------------------------------|
E|--------------------------------------2--2--1--1--|
B|--1--0--0--1--0--0--1--0--0--1--0--0--------------|


VERSE RIFF:

A|--------------------------------------------------|
E|--------------------------------------------------|
B|--1--0--0--1--0--0--1--0--0--1--0--0--1--0--1--0--|

Hate them, Hate them...


THE RIFF AFTER THAT ONE:

A|--------------------------------------------------------
E|--------------------------------------------------------
B|--3--3--3--0--2--2--2--0--3--3--3/6--6--6--6--6--6--6---.....

Live your farce, leave me alone...


THE LAST RIFF:

A|--------------------------------------|
E|--------------------------------------|
B|--0--0--0--0--0--0--0--0--2--2--2--2--|

Spit, Spit...


















transcribed by max asare
Другие песни: