SepulturaKamaitachi Текст, аккорды

0 Голосов
KAMAITACHI


from: SEPULTURA
AGAINST

E----------------------------------|
B----------------------------------|
G----------------------------------|
D-5-5-5-4-2-2-2-4-2-2-2-4-5-5-5-5--|
A-3-3-3-4-2-2-2-4-2-2-2-4-5-5-5-5--|
D-3-3-3-2-0-0-0-2-0-0-0-2-3-3-3-3--|

E----------------------------------|
B----------------------------------|
G----------------------------------|
D-5-5-5-4-2-2-2-4-2-2-2-4-5-5-5-5--|
A-3-3-3-4-2-2-2-4-2-2-2-4-3-3-3-3--|
D-3-3-3-2-0-0-0-2-0-0-0-2-3-3-3-3--|


E----------------------------------|
B----------------------------------|
G----------------------------------|
D-5-5-5--2-2-2--5-5-5--4--5-5-5-5--|
A-3-3-3--2-2-2--3-3-3--4--3-3-3-3--|
D-3-3-3--0-0-0--3-3-3--2--3-3-3-3--|


tabbed by < goldrunner@gmx.de >
Другие песни: