SentencedSun Wont Shine Текст

0 Голосов
Band : Sentenced

Song : Sun Won't Shine

Tab by Sami Куrцnlантi
Added By Mikhailo
___________________________________________________

tune down 1 step

-----------------------------------|
rhy fig1. |1.
d|------------------------------------------------------------------|
A|'-----3-------3-------3------3-------3-------3-------3--------3---|
F|----2---2---2---2---2---2--2---2---2---2---2---2---2---2----2---2-|
C|--0------------------------------0--------------------------------|
G|'---------1------------------------------1-------3--------3-------|
D|------------------1-------3---------------------------------------|

end of rhy fig 1.
|---------------------------------|
|-----3-------3-------3-------3---|
|---2---2---2---2---2---2---2---2-|
|---------------------------------|
|-1-------3-------0-------3-------|
|---------------------------------|

w/rhy fig 2.
rhy fig3. (second time only)
|-----------------------------------------------------------------|
|'----(3-1-----3-1-----3-1-----3-1-----3-1-----3-1-)-------------'|
|------2-0-----2-0-----2-0-----2-0-----2-0-----2-0--0-2-3---2---0-|
|--0-0-----0-0-----0-0-----0-0-----0-0-----0-0-----0------0---0---|
|'---------------------------------------------------------------'|
|-----------------------------------------------------------------|

w/rhy fig 2.
|-------0---------------0---------------0---------------0---------|
|-----3-----2---------3-----3---------3-----3---------3-----3-----|
|---2---------3-----2---------2-----2----------2----2---------2---|
|-0---------------------------------------------------------------|
|-----------------1-------------------------------3---------------|
|--------------------------------1--------------------------------|


rhy fig 2.
pm-------------------------------------------------| pm pm pm
|---------------------------------------------------------------------|
|---------------------------------------------------------------------|
|-7-------------------------------------------------------------------|
|-7-7-7-7-7-7-7-7-3-3-3-3-3-3-3-3-----------------------5---5---5---5-|
|-5-5-5-5-5-5-5-5-1-1-1-1-1-1-1-1-0---3-3-3-3-3-3-3-3-3-3-3-3-3-3-3-3-|
|-----------------------------------3-1-1-1-1-1-1-1-1-----------------|
The candles have been blown out by the wind...
----------| ---------------|
w/rhy fig 4. |1. |2.
/-|------------------------------------------------|---|------------|
/ |'----------------------------------------------'|---|------------|
| |------------------------------------------------|---|------------||
| |--3-3-3-3-3-2-0---------3-3-3-3-3-5-3-/7-7-5-3--|---|-/7-7-5-3-0-|
| |'---------------2-3-2--------------------------'|---|------------|
| |----------------------3-------------------------|---|------------|
|
| rhy fig 4.
| |-----------------------------------------------------------|
| |-----------------------------------------------------------|
| |-----------------------------------------------------------|
| |-3-3-3-3-3-2------------------3-3-3-3-3-5--7--7-7--7-7-7-7-|
|-1-1-1-1-1-0--5--5-5--5-5-5-5-1-1-1-1-1-3--5--5-5--5-5-5-5-|
-|--------------3--3-3--3-3-3-3------------------------------|

end of rhy fig 4.
|-----------------------------------------------------------|
|-----------------------------------------------------------|
|-----------------------------------------------------------|
|-3-3-3-3-3-2------------------3-3-3-3-3-5--2--2-2--7-7-7-7-|
|-1-1-1-1-1-0--5--5-5--5-5-5-5-1-1-1-1-1-3--0--0-0--5-5-5-5-|
|--------------3--3-3--3-3-3-3------------------------------|

chorus
w/rhy fig 5.
|---------------------------------------------| ?
|---------------------------------------------| ?
|-7---10-9-5-7-9-10-12---14-12--10-9-10-5-0-7-| ?
|---------------------------------------------| ?
|---------------------------------------------| ?
|---------------------------------------------| ?

|------------------------------------------------| ?
|------------------------------------------------| ?
|-7---10-9-5-7-9-10-12---14-12--10-9-12-10-9-5-4-| ?
|------------------------------------------------| ?
|------------------------------------------------| ?
|------------------------------------------------| ?

rhy fig 5.
|-----------------------------------------------------------------|
|-----------------------------------------------------------------|
|-----------------------------------------------------------------|
|-7-7-7-7-3-3-3-3-----------------3-3-3-3-5-5-5-5-2-2-2-2-5-5-5-5-|
|-5-5-5-5-1-1-1-1-3-3-3-3-5-5-5-5-1-1-1-1-3-3-3-3-0-0-0-0-3-3-3-3-|
|-----------------1-1-1-1-3-3-3-3---------------------------------|

w/rhy fig 3.
w/rhy fig 4.
chorus
--------------------------------------|
|1.
|---------------------------------------------------------------------|
|---------------------------------------------------------------------|
|---------------------------------------------------------------------|
|---------------------------------7-7-7-7-7-9--10-101010-109-9--9-7-7-|
|-5-5-5-5-5-7--8--8--8--8--8-8-10-5-5-5-5-5-7--8--8-8-8--8-7-7--7-5-5-|
|-3-3-3-3-3-5--6--6--6--6--6-6-8--------------------------------------|

-----
|2.
|---------------------------------|
|---------------------------------|
|---------------------------------|
|-7-7-7-7-7-5---------5-5-2-5-7-7-|
|-5-5-5-5-5-3--3--3-3-3-3-0-3-5-5-|
|--------------1--1-1-------------|


rhy fig 1.

solo (??????) w/rhy fig 4 *bend
|------------------------------------------------------------------------|
|-6-6-5-6-8-6h8p6p5-6-5-----------5-6-/10-8------------------------------|
|-----------------------5-----5-7-----------10-9-7---------------7*------|
|-------------------------5-7----------------------10-8-7----------------|
|---------------------------------------------------------10-8-7-----5--|
|------------------------------------------------------------------------|

*bend and release
|-13-------------------------------------------------------------------|
|-15*-(15)-11-13-11-11h13p12p11-11p10p9-----------11h13p12p11----------|
|---------------------------------------9h11p10p9-------------9*---7--|
|----------------------------------------------------------------------|
|----------------------------------------------------------------------|
|----------------------------------------------------------------------|


|-13p10p8-13p10p8-13p10p8p-13p10p8-13p10p8p-8h10p9p8---------------8----8/10---|
|----------------------------------------------------10p9p8-10p9p8---10--------|
|------------------------------------------------------------------------------|
|------------------------------------------------------------------------------|
|------------------------------------------------------------------------------|
|------------------------------------------------------------------------------|

chorus

w/rhy fig 3.
|-------------------------------------------------------------------|----
|'-----------------------------------------------------------------'|----
|-------------------------------------------------------------------|-7--
|--7-7-7-7-7-7-7-7---3---3---3---3-7-7-7-7-7-7-7-7---5---5---5---5--|-7--
|'-5-5-5-5-5-5-5-5-1-1-1-1-1-1-1-1-5-5-5-5-5-5-5-5-3-3-3-3-3-3-3-3-'|-5--
|-------------------------------------------------------------------|----

The sun won't shine on me without your love...
don't you know
Другие песни: