Screeching WeaselVeronica Hates Me Текст

0 Голосов
-------------------------------------------------------------------------------------------------------------------
VERONICA HATES ME - Screeching Weasel
-------------------------------------------------------------------------------------------------------------------

rtn83414@pegasus.cc.ucf.edu (that's ryan neal)

intro
|----------------------------|
|----------------------------|
|----------------------------|
|----------------------------|
|------7------5-------5---7--|
|--5------5-------5----------|

1..2..3..4

she always has something to say...
|--------------------------------|
|--------------------------------|
|--------------------------------|
|--------------------------------|
|------7--------5--------5----7--|
|--5---------5---------5---------|

but I know... screwin' me...
|---------| -> |-----|
|---------| -> |-----|
|---------| -> |-----|
|---------| -> |-----|
|---------| -> |--7--|
|----| -> |-----|

veronica doesn't like the way I dress...

|---------------|
|---------------|
|---------------|
|---------------|
|----------5----|
|--5----2-------|

why the desposition?...

|-----------------------|
|-----------------------|
|-----------------------|
|-----------------------|
|-----5-----5-----5-----|
|--7-----7-----7-----5--|

veronica hates me...
|-----------|
|-----------|
|-----------|
|-----------|
|-----5-----|
|--3-----5--|

=====================================================================
Другие песни: