SaxonDenim And Leather Текст

0 Голосов
SAXON - DENIM AND LEATHER
From the Album DENIM AND LEATHER
Copyright 1981 EMI RECORDS
Version 1.0 - (NOV. - 2001)

Transcribed by: RENE C

For Questions, Comments, Newest Version, or Corrections contact
(YOUR NAME): at (YOUR E-MAIL ADDRESS)

Check Out Death Warp, With More Transcriptions On It:
http://www.wam.umd.edu/~ekubica

.. - palm mute / - slide up to
- slide down to ~ - vibrato
h - hammer on b - bend
p - pull off Suffixes for bend
ph - pinch harmonic
f - full bend h - half bend
* - see comment r - release t - tap bend
X - percussion mute ~ - vibrato bend
@ - slight palm mute () - ghost note, sustained note

Tune Gtr to Eb


Riff A
|-------------------------------------------------------|
|-------------------------------------------------------|
|--2-2-----2~--2-2-----2~--2-2-----2~--5-5--5-5---------|
|--2-2---------2-2---------2-2---------5-5--5-5---------|
|--0-0--3h4----0-0--3h4----0-0--3h4----3-3--3-3---------|
|-------------------------------------------------------|

Riff B
|--------------------------------------------------------------|
|--------------------------------------------------------------|
|--------5--7--5-5--5-5-4-2----------0-------0-2----5--7-------|
|--5--7--5--7--5-5--5-5-4-2--------2---2---0---2----5--7-------|
|--5--7--3--5--3-3--3-3-2-0--0-2-3-------2-----0----3--5-------|
|--3--5--------------------------------------------------------|
Другие песни: