Satriani JoeGuitar In Memory Of Cliff Burton Текст

0 Голосов
Song: Guitar Solo In Memory of Cliff Burton

By: Joe Satriani

Transcribed by: Derek Kline
Date: 9/1/02
Email: PSXplayer87@aol.com

This is just the guitar part for the the guitar that starts
the song. It is the lower of the two. I will add the
other part on to this later most likely. Anyways when Joe
plays this song it sounds like his guitar is a little out
of tune. But this is what it is in standard tuning. Have
fun with this.

e|------------------------------------------------------|
B|------------------------------------------------------|
G|--4h5-4h5-5p4-4-2-0-0-0-0-0h2-4h5-5/7-7-4-0-0-0-0-0h4-|
D|------------------------------------------------------|
A|------------------------------------------------------|
E|------------------------------------------------------|


-------------------------------------------------------|
-------------------------------------------------------|
--0-0-0-4-4h5-5-5-4-2-0-0-0-0h2-4h5-4h5-5h7-7-4-0-0-0--|
-------------------------------------------------------|
-------------------------------------------------------|
-------------------------------------------------------|


-------------------------------------------------------|
-------------------------------------------------------|
--0-4-0-0-0-0-4-4h5-4h5-5p4-2-0-0-0-0h2-4h5-5/7-7-4-0--|
-------------------------------------------------------|
-------------------------------------------------------|
-------------------------------------------------------|


-------------------------------------------------------|
-------------------------------------5-----5-5h6p5p3---|
-0-0-0-4-0-0-0-4-2-----2---5-2---5-----5-5-------------|
-------------------2-2---2-----2---2-------------------|
-------------------------------------------------------|
-------------------------------------------------------|


--------------------------------------------------------|
------------------------------------------5-----5h6p5p3-|
--5p4-0-0-0-4h5/7-7-7-7-9-5-0-0-4h5-0-7-0---0-7---------|
--------------------------------------------------------|
--------------------------------------------------------|
--------------------------------------------------------|


-------------------------------------------------------|
-------------------------------------------------------|
--2-5-5-5-5h7-7/9-9-9-9-11-4-----2---5-2---5---2-----2-|
-----------------------------2-2---2-----2---2---2-2---|
-------------------------------------------------------|
-------------------------------------------------------|


-------------------------------------------------------|
-------------------------------------------------------|
----5-2------------------------------------------------|
--2----------------------------------------------------|
-------------------------------------------------------|
-------------------------------------------------------|
Другие песни: