Satriani JoeFriends Текст

0 Голосов
Hi, this is my first tab... Hope you can enjoy it... Have fun


5b7 Pick fret 5, then bend two frets
5b7r5 Pick, bend two frets, release bend
5h7 Pick fret 5, hammer on fret 7
7p5 Pick fret 7, pull of to fret 5
(7) The note is still ringing from a previous hit
~~~ Left hand vibrato
14===== Shows the duration of the note

Tempo 88 bpm

|--16----18-16~~~----------------|--------------------------------|
|------------------------14h16-16|16b18---16~~~---14--------------|
|--------------------------------|-------------------15--13-------|
|--------------------------------|--------------------------------|
|--------------------------------|--------------------------------|
|--------------------------------|--------------------------------|
^ ^ ^ ^ ^ ^ ^ ^

|16161618-21-16------------------|--------------------------------|
|------------------------14h16-16|16b18---16~~~--------14---------|
|--------------------------------|-------------1313-15----15------|
|--------------------------------|--------------------------------|
|--------------------------------|--------------------------------|
|--------------------------------|--------------------------------|
^ ^ ^ ^ ^ ^ ^ ^

|--------------------------------|--------------------------------|
|--------14-16b18~~~----(18)-16--|16-16b18-16-----14------14~~~---|
|13--15--------------------------|------------------15-13---------|
|--------------------------------|--------------------------------|
|--------------------------------|--------------------------------|
|--------------------------------|--------------------------------|
^ ^ ^ ^ ^ ^ ^ ^

|--------------------------------|--------------------------------|
|1614----------------------------|--------------------------------|
|--------15------13--------------|--------------------------------|
|--------------------------------|--------------------------------|
|------------------------16------|--------------------------------|
|--------------------------------|--------------------------------|
^ ^ ^ ^ ^ ^ ^ ^

|--------------------------------|--------------------------------|
|18-18-18b19-18----16-14-16-16---|18--14--16~~~-------------------|
|--------------------------------|--------------------------------|
|--------------------------------|--------------------------------|
|--------------------------------|--------------------------------|
|--------------------------------|--------------------------------|
^ ^ ^ ^ ^ ^ ^ ^

|--------------------------------|--------------------------------|
|18-19----21~~~-----18-19-21~~~--|---16-14-16~~~----------14======|
|--------------------------------|--------------------------------|
|--------------------------------|--------------------------------|
|--------------------------------|--------------------------------|
|--------------------------------|--------------------------------|
^ ^ ^ ^ ^ ^ ^ ^

|--------------------------------|--------------------------------|
|==-16---18-18b19r18-161416------|----------------------13-14=====|
|--------------------------------|--15-13-13------13-15-----------|
|--------------------------------|--------------------------------|
|--------------------------------|--------------------------------|
|--------------------------------|--------------------------------|
^ ^ ^ ^ ^ ^ ^ ^

|--------------------------------|------------------------16b18~~~|
|14------------------------------|--------------------------------|
|---1513-15------13--------------|--------------------------------|
|--------------------------------|--------------------------------|
|------------------------16------|--------------------------------|
|--------------------------------|--------------------------------|
^ ^ ^ ^ ^ ^ ^ ^

|--16-14-13-----14-161413--------|--------------------------------|
|------------------------14b16---|--14----------------------------|
|--------------------------------|----13-13~~~--------------------|
|--------------------------------|--------------------------------|
|--------------------------------|--------------------------------|
|--------------------------------|--------------------------------|
^ ^ ^ ^ ^ ^ ^ ^

2xfast
|21b22---21b22~~~--182021-21b23--|21b23-21-20-21--21b23~~~--------|
|--------------------------------|--------------------------------|
|--------------------------------|--------------------------------|
|--------------------------------|--------------------------------|
|--------------------------------|--------------------------------|
|--------------------------------|--------------------------------|
^ ^ ^ ^ ^ ^ ^ ^

|16b18---16--15--14--13--14--15--16------------------------------|
|-----------------------------------16b18r16--14-16b18r16--14----|
|----------------------------------------------------------------|
|----------------------------------------------------------------|
|----------------------------------------------------------------|
|----------------------------------------------------------------|
^ ^ ^ ^

|-----16-----------------21~~~~~~|
|--------------------------------|
|15b17---13~~~-------------------|
|--------------------------------|
|--------------------------------|
|--------------------------------|
^ ^ ^ ^

|===============-13--h--14--16---13--h--14--16---13--h--16-------|----
|-----------------------------------------------------------14---|----
|----------------------------------------------------------------|----
|----------------------------------------------------------------|----
|----------------------------------------------------------------|-16-
|----------------------------------------------------------------|----
^ ^ ^ ^ ^
Другие песни: