Satriani JoeCrush Of Love Текст

0 Голосов
i think that this is the begging listen to song for timing 

standard tuning
b=bend
~=pause

e--------------------------------------12-12b-10--------------------------------
b----------10-13-10-13-10b~---10-12-13-----------13-10b~---10-8-10--10-8-10b----
g-------------------------------------------------------------------------------
d-------------------------------------------------------------------------------
a-------------------------------------------------------------------------------
e-------------------------------------------------------------------------------

e--------------------------------15-13-12------12-----------12-15-12---12-15-12-
b--10-13-10-13-10b~---10-12-13-------------15------13b~-------------------------
g-------------------------------------------------------------------------------
d-------------------------------------------------------------------------------
a-------------------------------------------------------------------------------
e-------------------------------------------------------------------------------

and you wanna play that twice
Другие песни: