Satriani JoeCircles Текст

0 Голосов
Circles; Joe Satriani



P.M. P.M. P.M. P.M.
||--------------------------------------------------------------------
||--------------------------------------------------------------------
||*--11------------9----------7---------------------------------------
||*--9----------------------------------9------------7--------7-------
||-----------------10---------9---------7---0-------------------------
||-----------0----------0---------0------------------8--------8-------


P.M. P.M. P.M.
--------|-------------------------------------0-----0-----------------
--------|-------------------------------------0-----0-----------------
--------|-------------------------------------9-----9-----------------
10------|--9------------7-----7---------------9-----9-----------------
--------|---------------5-----5--9/1097-----------------------------
8----0--|--7------0----------------------------------------0--0-------


4x P.M.-------] P.M.------------] P.M.----]
-||--------------------------------------------------------------|----
-||--------------------------------------------------------------|----
*||----------------------------------------------5---------------|----
*||------------------12------------------------------------------|----
-||----10--9--10------------10---10-----7--5--7-----7------------|----
-||----8---8--8------------------8---0--5--5--5---------0-----7--|----


P.M. P.M. P.M.
----------------------------------------------------------|-----------
----------------------------------------------------------|-----------
----------------------------------------------------------|-----------
------------9--------------------------------7------------|-----------
5/7---------------7------------------5/7--------7---------|-----------
------0---------------0-----7-------------7---------7--8--|-----------


P.M.-----------] P.M.--------------]
-------------------------------------------------------||-------------
-------------------------------------------------------||-------------
-------------------------------------------5-----------||*--11--------
---------------12--------------------------------------||*--9---------
-10--9--10---------10--10------7--5--7--------7--------||-------------
-8---8--8--------------8----0--5--5--5-----------0--0--||-------------


P.M. P.M. P.M. P.M. P.M.
----------------------------------------------------------|-----------
----------------------------------------------------------|-----------
----------9----------7------------------------------------|-----------
-------------------------------9---------7-----7--10------|--9--------
----------10---------9---------7---0----------------------|-----------
----0----------0---------0---------------8-----8--8----0--|--7--------


P.M. P.M. 2x P.M.

-----------------------------0-----0----------||--||------------------
-----------------------------0-----0----------||--||------------------
-----------------------------9-----9---------*||--||*-----------------
-------7-----7---------------9-----9---------*||--||*-----9-----------
-------5-----5--9/1097----------------------||--||------7-----------
-0-------------------------------------0--0---||--||----------0-------


P.M. P.M. P.M.------] 3x

---------------------------------------------------||-----------------
---------------------------------------------------||-----------------
--------------------------------------------------*||-----------------
11-----12---------9---------------9---------------*||-----9-----------
10~~~--12---------7---------------7----------------||-----7-----------
------------0------------0------------------0--0---||-----------------


P.M. P.M. Guitar Solo
----------------------------------0--||---|--------------|------------
----------------------------------0--||---|--------------|------------
----------------------------------9--||---|--------------|------------
----------11-----12---------------9--||---|--------------|------------
----------10~~~--12---------------7--||---|--------------|------------
-0-----------------------0-----------||---|--------------|------------
Другие песни: