Santana CarlosThe Sensitive Kind Текст

0 Голосов
The sensetive kind Santana

TablEdited by Jan.Bjorklund
Tuning : E A D G Time Signature: 4/4

First 8 bars = intro
| | | | | | | |
|------------7-------------------|--------------------------------|
|5---------------------------5---|--------------------------------|
|------------------------------8-|6-----------8---------------6---|
|--------------------------------|--------------------------------|

| | | | | | | |
|------------7-------------------|--------------------------------|
|5---------------------------5---|--------------------------------|
|------------------------------8-|6-----------8---------------6---|
|--------------------------------|--------------------------------|

| | | | | | | |
|--------------------------------|--------------------------------|
|--------------------------------|--------------------------------|
|------------5-------------------|6---------------5---------------|
|3-------------------------------|--------------------------------|

| | | | | | | |
|--------------------------------|--------------------------------|
|--------------------------------|----------Don't---take her for--|
|3-------------------------------|--------------------------------|
|--------------------------------|--------------------------------|

| | | | | | | |
|------------7-------------------|--------------------------------|
|5---------------------------3---|5-----------3---5---3-----------|
|-granted.....-------------------|------------------------5-------|
|--------------------------------|--------------------------------|

| | | | | | | |
|------------7-------------------|--------------------------------|
|5---------------------------3---|5-----------3---5---3-----------|
|--------------------------------|------------------------5-------|
|--------------------------------|--------------------------------|

| | | | | | | |
|--------------------------------|--------------------------------|
|------------5-------------------|--------------------------------|
|3---------------------------1---|3-----------1---3---1-----------|
|--------------------------------|------------------------3-------|

| | | | | | | |
|------------7-------------------|--------------------------------|
|5---------------------------3---|5-----------3---5---3-----------|
|--------------------------------|------------------------5-------|
|--------------------------------|--------------------------------|

| | | | | | | |
|------------7-------------------|--------------------------------|
|5---------------------------3---|5-----------3---5---3-----------|
|--------------------------------|------------------------5-------|
|--------------------------------|--------------------------------|

| | | | | | | |
|--------------------------------|--------------------------------|
|------------5-------------------|--------------------------------|
|3---------------------------1---|3-----------1---3---1-----------|
|--------------------------------|------------------------3-------|

| | | | | | | |
|--------------------------------|--------------------------------|
|--------------------------------|--------------------------------|
|6-------------------------------|5-------------------------------|
|--------------------------------|--------------------------------|
and so on.....
| | | | | | | |
|--------------------------------|--------------------------------|
|5-----------------------3-------|5-------------------------------|
|------------5-------5-------5---|--------------------------------|
|--------------------------------|--------------------------------|


Created with TablEdit http://www.tabledit.com/
Другие песни: