SamhainWhen Death Had No Name Текст, аккорды

0 Голосов
band: Samhain

Song: when death had no name

Tabber: John Cukras
AIM: EmbryoCrusher

Tuning: normal

Riff 1: Part A Part B
E----------------------------|---------------------|
B----------------------------|---------------------|
G-2-22-----------------------|---------------------|
D-2-22-5-55-4-44-5-55--------|-4444-5555-7777-9999-|
A-0-00-3-33-2-22-3-33--------|-2222-3333-5555-7777-|
E-------------------- x's 4--|---------------------|

Riff 1

Riff 1

Riff 2:
E---------------------------------------------------|
B---------------------------------------------------|
G---------------------------------------------------|
D-4----4------4------4-------4--4444-5555-7777-9999-|
A-2----2------2------2-------2--2222-3333-5555-7777-|
E---00---0000---0000----0000------------------------|
pm .. .... .... ....

Riff 1: Part A x's 2

Riff 3:
E----------------------------------------------|
B----------------------------------------------|
G----------------------------------------------|
D-44444444444-----------------------4444444444-|
A-22222222222-----------------------2222222222-|
E------------ Riff 1: Part A once -----------|

Riff 1: Part A x's 2

Riff 4:
E---------------|
B---------------|
G---------------|
D-55555555555-6~
A-33333333333-4~
E---------------

Riff 1

Riff 2

Riff 5: Part A Part B
E---------------------------|---------------------|
B---------------------------|---------------------|
G---------------------------|---------------------|
D-5------------5-7-5--------|-4444-5555-7777-9999-|
A-3------------3-5-3--------|-2222-3333-5555-7777-|
E-----00000000------ x's 12-|---------------------|
pm ........

Riff 5: Part A x's 2 , Part B , Part A x's 4

Riff 6:
E-------------------------------------------------------|
B-------------------------------------------------------|
G-------------------------------------------------------|
D-88888888-66666666-55555555-88888888-11111111-10110100-|
A-66666666-44444444-33333333-66666666-99999999-88888888-|
E-------------------------------------------------------|

Riff 5: Part A x's 4

Outro:
E-------------------------------------------------------------------------------------------|
B-------------------------------------------------------------------------------------------|
G----4------4------4------4-------------4-------4--------4-------4-----------22222222----2--|
D----2------2------2------2-------------2-------2--------2-------2-----------22222222-4~-2--|
A-2~----3~-----4~-----5~--- x's 2---2-2---2-3-3---3-4-4----4-5-5---5 x's 2---00000000-2~-0--|
E-------------------------------------------------------------------------------------------|
Другие песни: