Sabrina CarpenterParis Текст, аккорды

0 Голосов
Вступление: 
g|----------------------------
d|----------------------------
a|---------0h5------0-0-0-0h5-
e|-3--1-1-1------3------------

g|----------------------------------------
d|----------------------------------------
a|-----------------------------------0h5--
e|---3----------------1----1---1----------
If I ask that boy to jump, I know he would

g|----------------------------------------
d|----------------------------------------
a|---------------------0---0----0-----0h5-
e|-------3--------------------------------
He don't even have to say, it's understood

g|---------------------------------------------------
d|---------------------------------------------------
a|-----------------------------------------------0h5-
e|-----------3-----------------1-----1----1----------
He treat me nice, he treat me right, he treat me good

g|----------------------------------------------
d|----------------------------------------------
a|-------------------------0---0------0--0h5----
e|--------------3-------------------------------
Still I get so hesitant, still I get so hesitant

Gm F Dm
So I took myself where I think I should be
Gm A7 Dm
Someone told me that he's waiting here for me
Gm F Dm
Parisian nights, Parisian hot, Parisian breeze
Gm
Feeding me like medicine,
A7 Dm
feeding me like medicine, yeah

A# Gm Dsus2
It's so romantic in Paris
A# Gm Dsus2
Won't even try to compare it
A# Gm Dsus2
Thought I was sure that I'd find it
A# A7 Dsus2
But I already have love in LA
A# Gm Dm
It's so romantic in Paris
A# Gm Dm
Won't even try to compare it
A# Gm Dm
Thought I was sure that I'd find it
A# A7 Dm
But I already have love in LA
A# Dm
Yeah, I already have love in LA

g|---------------------------------------------
d|---------------------------------------------
a|-----------------------------------------0h5-
e|-------3---------------1-------1------1------
If you show me too much love, it makes me leave

g|------------------------------------------------
d|------------------------------------------------
a|-----------------------0------0------0------0h5-
e|---------3--------------------------------------
Guess it's one of many things that's wrong with me

g|-----------------------------------------------
d|-----------------------------------------------
a|-------------------------------------------0h5-
e|-------3--------------------1----1-------1-----
Looking past you when you're right in front of me

g|----------------------------------------------
d|----------------------------------------------
a|-----------------------0--------0---0---0h5---
e|--------------3-------------------------------
I won't do that anymore, I won't do that anymore

Gm F Dm
Why'd it take so long for me to know this?
Gm A7 Dm
Scared to put the water with the roses
Gm F Dm
Halfway across the world for me to notice
Gm A7 Dm
But I know this, yeah I know this, yeah

A# Gm Dm
It's so romantic in Paris
A# Gm Dm
Won't even try to compare it
A# Gm Dm
Thought I was sure that I'd find it
A# A7 Dm
But I already have love in LA
A# Gm Dm
It's so romantic in Paris
A# Gm Dm
Won't even try to compare it
A# Gm Dm
Thought I was sure that I'd find it
A# A7 Dm
But I already have love in LA

Gm F Dm
Je ne voulais pas trouver l'amour
Gm A7 Dm
Mais Paris à quelque chose
Gm F Dm
Qui donne envie d'aimer, d'aimer passionément
Gm
Mon coeur est à toi pour toujours
A7 Dm
you will always have my heart

A# Gm Dsus2
It's so romantic in Paris
A# Gm Dsus2
Won't even try to compare it
A# Gm Dsus2
Thought I was sure that I'd find it
A7 Dm
But I already have love in LA
Dm
(already have love...)

A# Gm Dm
It's so romantic in Paris
A# Gm Dm
Won't even try to compare it
A# Gm Dm
Thought I was sure that I'd find it
A# A7 Dm
But I already have love in LA
A# Gm Dm
It's so romantic in Paris
A# Gm Dm
Won't even try to compare it
A# Gm Dm
Thought I was sure that I'd find it
A# A7 Dm
But I already have love in LA
A# A7 Dm
But I already have love in LA
Другие песни: