RufioRoad To Recovery Текст

0 Голосов
---------------------------------------------------------------------------

Road to Recovery - RUFIO
---------------------------------------------------------------------------
Tabbed by: Edd
Email: mydoghasherpes@hotmail.com

Tuning: Standard

This is the proper verse and guitar solo for Road to Recovery. The other parts
to the song are easy and can be found on other sites.

e|---------------------------------------------------------------------------|
B|-------5-----5---------5-----5------5-----5---------5-----5--5--5------5---|
G|----------5---------5-----5------------4--------4------4-----------5-------|
D|----3------------3---------------5-----------5-----------------------------|
A|---------------------------------------------------------------------------|
E|---------------------------------------------------------------------------|

e|---------------------------------------------------------------------------|
B|----------5-----5--5--5-----5--------5-----5------5-----5--------5-----5---|
G|-------5-----5-----------4--------4-----4------------5--------5-----5------|
D|----7--------------------------5---------------3-----------3---------------|
A|---------------------------------------------------------------------------|
E|---------------------------------------------------------------------------|

e|------------------------------------------------------------------------------------|
B|-------5-----5--------5-----5--5--5-----5--------5-----5--5--5-----5--------5-----5-|
G|----------4--------4-----4-----------5--------5-----5-----------4--------4-----4----|
D|----5-----------5--------------------------7--------------------------5-------------|
A|------------------------------------------------------------------------------------|
E|------------------------------------------------------------------------------------|

===============================================================================

Verse

e|-----------------------------------------------------------------
B|---15----------------------13--12--------------------------------
G|---12-x-12-----12--10--12----------12----------------------------
D|---10--------------------------------------5--3~—3p2h3p2---------
A|----------------------------------------3----------------3-------
E|-----------------------------------------------------------------

e|-----------------------------------------------------------------
B|-----------------------------------------------------------------
G|-----------------------------------------------------------------
D|--------5--3~—3p2h3p2--------------------------------------------
A|----------------------3------------------------------------------
E|----3------------------------------------------------------------

| / slide up
| slide down
| h hammer-on
| p pull-off
| ~ vibrato
| + harmonic
| x Mute note
=====================================================================
Другие песни: