Robert Earl KeenDont Turn Out The Light Текст

0 Голосов
#----------------------------------PLEASE NOTE---------------------------------#

#This file is the author's own work and represents their interpretation of the #
#song. You may only use this file for private study, scholarship, or research. #
#------------------------------------------------------------------------------##
From: tbacus@onramp.net

Don't Turn out the Light
by Robert Earl Keen Jr.

Intro:

D G
Scarecrow and a yellow moon
D A7 D
and a roadhouse on the edge of town.
D G
Hear that midnight rooster crow
D A7
well I'll have one more before I go
G D
but Honey, don't turn out the light
A7 G D
'cause I think I'm in the mood for love tonight


The night is cool beneath the stars
ridin' home in John's old car
got my head out in the wind
here I am drunked up again
but Honey, don't turn out the light
'cause I think I'm in the mood for love tonight


Me and John in a pickup truck
bottle of gin and a paper cup
Runnin' wild and livin' hard
I passed out in our front yard
but Honey, don't turn out the light
'cause I think I'm in the mood for love tonight


Instrumental


The moon is high, the sun is down
Honey came out in her night gown
On the porch at a quarter to three
talkin' to the deputy sherrif and me
but Honey, don't turn out the light
'cause I think I'm in the mood for love tonight

I said Honey, don't turn out the light
'cause I think i'm in the mood for love tonight
I said Honey, don't turn out the light
'cause I think i'm in the mood for love tonight



This song has a really great instrumental intro:

D G A7 D G A7
E|------2---------3---3|--2---------0---0|--2-------3---3|--2---------0---0-|
B|------3---------0---0|--3---------2---2|--3-------0---0|--3---------2---2-|
G|--0-2---2^4^2-0-----0|--2---------0---0|2---2---0-----0|--2---------0---0-|
D|4-----------------0--|4---4-2-0-2-----2|------4-----0--|4---4^5^4-2-----2-|
A|---------------------|--------------0--|---------------|--------------0---|
E|---------------------|-----------------|---------------|------------------|


G
E|------3---------------2---2---2---2|------0-------3---2---2---2---2|
B|------3---------------3---3---3---3|------2-------0---3---3---3---3|
G|------0---------------2---2---2---2|------0-------0---2---2---2---2|
D|--0-0---0-2-0-4^2^0-0-----0-0-----0|--2-2-----0-0---0-------0------|
A|2-----------------------0-------0--|0-------------------0-------0--|
E|-----------------------------------|--------3----------------------|
Другие песни: