Rob ZombieDemonoid Phenomenon Текст, аккорды

0 Голосов
Demonoid Phenomenon

By: Rob Zombie
From: HellBilly Deluxe
Tabbed By: Mike Gagnon

Tuning (CGCFAD)

Intro/Chorus

D-------------------------------
A-------------------------------
F-------------------------------
C-2-2-2-2-2-2-2-3/2-2-2-2-2-2-2-
G-2-2-2-2-2-2-2-3/2-2-2-2-2-2-2-
C-2-2-2-2-2-2-2-3/2-2-2-2-2-2-2-

Next Part

D---------------------------------------
A---------------------------------------
F---------------------------------------
C-2-2-2-2-2-2-2-2-2-3/2-2-2-2-2-2-2-2-2-
G-2-2-2-2-2-2-2-2-2-3/2-2-2-2-2-2-2-2-2-
C-2-2-2-2-2-2-2-2-2-3/2-2-2-2-2-2-2-2-2-

Next Piece

D---------------------------------------
A---------------------------------------
F---------------------------------------
C-2-1-0----2-1-0--2-1-0----2-1-0--------
G-2-1-0----2-1-0--2-1-0----2-1-0--------
C-2-1-0--0-2-1-0--2-1-0--0-2-1-0--------

Solo: Use a wah

D---------------------------
A---------------------------
F---------------------------
C-16-16-16-20^-16-16-16-20^-
G---------------------------
C---------------------------

Second Solo: Use a Phaser
Repeat Seven Times

D------------
A------9-11^-
F-8-11-------
C------------
G------------

And There you have it folks. Demonoid Phenomenon Guitar Tab
Другие песни: