RihannaFivefourseconds Текст

0 Голосов
Capo 2nd

Intro:
G F Gm C
e|---0-0-0-0---0-H-1----1-1-1-1-1-1-----------0-0-0-0----------3-3-3-3-3------|
B|---1-1-1-1---1--------1-1-1-1-1-1-----------1-1-1-1----------3-3-3-3-3------|
G|----------------------------------------------------------------------------|
D|-------------3--------------------------------------------------------------|
A|-3-------------------------------------0------------------------------------|
E|---------------------------------------------------------3------------------|

G F Gm C G
e|---0-0-0-0---0-H-1----1-1-1-1-1-1-----------------------------------0--------|
B|---1-1-1-1---1--------1-1-1-1-1-1-----------------------------------1--------|
G|-------------------------------------------2-------------------0----0--------|
D|-------------3---------------------------2------------------0-------2--------|
A|-3-------------------------------------0----------------------------3--------|
E|---------------------------------------------------------3-------------------|

Verse 1:
G F Gm C
I think I've had enough, I might get a little drunk
G F Gm C G
I say what's on my mind, I might Do a little time
G F Gm C
Cause all of my kindness, is taken for weakness

Chorus:
G F
Now I'm FourFiveSeconds from wildin'
Gm C G
And we got three more days 'til Friday
G F
I'm just tryna make it back home by Monday, mornin'
Gm C
I swear I wish somebody would tell me
C
Ooh thats all I want

Verse 2:
G F G F
Woke up an optimist, sun was shining I'm positive
G F
Then I heard you was talkin' trash
G F
Hold me back I'm bout' to spaz

Chorus:
G F
Now I'm FourFiveSeconds from wildin'
Gm C G
And we got three more days 'til Friday
G F
I'm just tryna make it back home by Monday, mornin'
Gm C
I swear I wish somebody would tell me
C
Ooh thats all I want

Bridge:
F Gm
And I know that you're up tonight
Cm
Thinkin' how could I be so selfish
F Gm Cm Gm Csus4 C
But you called bout a thousand times wondering where I been
F Gm
Now I know that your up tonight
Cm
Thinkin' how could I be so reckless
F Gm Cm Gm Csus4 C
But I just can't apologize, I hope you can understand

Verse 3:
G F Gm C
If I Go to jail tonight, promise you'll pay my bail
G F Gm C G
See they want to buy my pride, but that just ain't up for sale
G F Gm C
See all of my kindness, is taken for weakness

Chorus:
G F
Now I'm FourFiveSeconds from wildin'
Gm C G
And we got three more days 'til Friday
G F
I'm just tryna make it back home by Monday, mornin'
Gm C
I swear I wish somebody would tell me
C
Ooh thats all I want

Chorus:
G F
Now I'm FourFiveSeconds from wildin'
Gm C G
And we got three more days 'til Friday
G F
I'm just tryna make it back home by Monday, mornin'
Gm C
I swear I wish somebody would tell me
C
Ooh thats all I want
Другие песни: