ПургенМегасити Текст, аккорды

0 Голосов
E----------------|

B----------------|
G|----------|--9----9----9---------|--9----9----9----|
D|----------|--9----9----9---------|--9----9----9----|
A||--7------7------7----|--7----7----7----|--7------7------|--7----7----7----|
E----------------|



----------------------|----|
----------------------|----|
----------------|--9--9--9--9--|--9--9--9--9--||*--9--9--9--9--|
----------------|--9--9--9--9--|--9--9--9--9--||*--9--9--9--9--|
--7------7------|--7--7--7--7--|--7--7--7--7--||---7--7--7--7--|
----------------------|----|



-----------------------------------|
-----------------------------------|
--12--12--12--12----------------|--7--7--7--7--|
--12--12--12--12--|--10--10--10--10--|--10--10--10--10--|--7--7--7--7--|
--10--10--10--10--|--10--10--10--10--|--10--10--10--10--|--5--5--5--5--|
------------------|--8---8---8---8---|--8---8---8---8------|


3x
-------------------------|----------|
--10--10--10--10---------|----------|
--9---9---9---9---------*||*--------------------|
--7---7---7---7---|--9--9--9--9--|--9--9--9--9--*||*--------------------|
------------------|--9--9--9--9--|--9--9--9--9---||---7-7-7-7-9-9-10-10-|
------------------|--7--7--7--7--|--7--7--7--7---|----------|



------------------------------------|
------------------------------------|
------------------------------------|
------------------------------------|
--7-7-7-7-9-9-10-10-|--7-7-7-7-9-9-10-10--------|
-----------------------------|--8-8-8-8-7-7-7-7-|



----------------------------------------||
----------------------------------------||
----------------------------------------|----------*||
-----------------------------|--10-10-10-10-9-9-9-9-|--9-9-9-9-*||
--7-7-7-7-9-9-10-10-|--7-7-7-7-9-9-10-10------------||
----------------------------------------||



----------------------------------------------------------|
----------------------------------------------------------|
*--10--10--10--10--10--10--10--10--|--10--10--10--10--10--10--10--10--|
*--10--10--10--10--10--10--10--10--|--10--10--10--10--10--10--10--10--|
---8---8---8---8---8---8---8---8---|--8---8---8---8---8---8---8---8---|
----------------------------------------------------------|



-----------------------------------------|
-----------------------------------------|
--7--7--7--7--7--7--7--7--|--7--7--7--7--7--7--7--7--|
--7--7--7--7--7--7--7--7--|--7--7--7--7--7--7--7--7--|
--5--5--5--5--5--5--5--5--|--5--5--5--5--5--5--5--5--|
-----------------------------------------|



------------------------------------------||
------------------------------------------||
-----------------------------------------*||
--7--7--7--7--7--7--7--7--|--7--7--7--7--7--7--7--7--*||
--7--7--7--7--7--7--7--7--|--7--7--7--7--7--7--7--7---||
--5--5--5--5--5--5--5--5--|--5--5--5--5--5--5--5--5---||


куплет
-------------------------------------------------|----|
-------------------------------------------------|----|
-------------------------------------------------||*--9--9--9--9--|
-------------------------------------------------||*--9--9--9--9--|
--8--8--8--8--9--9--9--9--|--10--10--10--10--11--11--11--11--||---7--7--7--7--|
--6--6--6--6--7--7--7--7--|--8---8---8---8---9---9---9---9---|----|



-----------------------------------|
-----------------------------------|
--12--12--12--12----------------|--7--7--7--7--|
--12--12--12--12--|--10--10--10--10--|--10--10--10--10--|--7--7--7--7--|
--10--10--10--10--|--10--10--10--10--|--10--10--10--10--|--5--5--5--5--|
------------------|--8---8---8---8---|--8---8---8---8------|


3x припев
-------------------------|----|
--10--10--10--10---------|----|
--9---9---9---9---------*||*--9--9--9--9--|
--7---7---7---7---|--9--9--9--9--|--9--9--9--9--*||*--9--9--9--9--|
------------------|--9--9--9--9--|--9--9--9--9---||---7--7--7--7--|
------------------|--7--7--7--7--|--7--7--7--7---|----|



-------------------------------|
-------------------------------|
--9--9--9--9----------------|--7--7--7--7--|
--9--9--9--9--|--10--10--10--10--|--10--10--10--10--|--7--7--7--7--|
--7--7--7--7--|--10--10--10--10--|--10--10--10--10--|--5--5--5--5--|
--------------|--8---8---8---8---|--8---8---8---8------|


2x
---------------------||
---------------------||
--7--7--7--7--------*||
--7--7--7--7--|--9--9--9--9--|--9--9--9--9--*||
--5--5--5--5--|--9--9--9--9--|--9--9--9--9---||
--------------|--7--7--7--7--|--7--7--7--7---||

новых рифов далее не следует,
так что играйте написанные выше
в нужном порядке
Другие песни: