Песни из кино и мультфильмовThe Immortals (Mortal Kombat Theme) Текст, аккорды

0 Голосов
Part 1: 
E|--------------------0-----|--------0-----3-----0-----|--|
B|--------1-----3--------3--|--1--1-----1-----1-----1--|--|
G|--2--2-----2-----2--------|--------------------------|--|
D|--------------------------|--------------------------|--|
A|--------------------------|--------------------------|--|
E|--------------------------|--------------------------|--|

E|--------------------------|--------------------------|--|
B|--------0-----1-----3--1--|--------------1-----1--0--|--|
G|--0--0-----0-----0--------|--------2-----------------|--|
D|--------------------------|--3--3-----3-----3--------|--|
A|--------------------------|--------------------------|--|
E|--------------------------|--------------------------|--| x2

Part 2:
E|--------------------|--------------------------|--|
B|--------------------|--------------------------|--|
G|--2--2--2-2--0--5---|--2--2--2-2--0------------|--|
D|--2--2--2-2--0--5---|--2--2--2-2--0---2--------|--|
A|--------------------|-----------------2--------|--|
E|--------------------|--------------------------|--|

E|--------------------|--------------------------|--|
B|--------------------|--------------------------|--|
G|--2--2--2-2--0--5---|--2--2--2--2-2-2-2--------|--|
D|--2--2--2-2--0--5---|--2--2--2--2-2-2-2--------|--|
A|--------------------|--------------------------|--|
E|--------------------|--------------------------|--| x2

Part 3:
E|----------------------------|----------------------------|--|
B|----5-----------------------|----5-----------------------|--|
G|--2---2-5-2-3-2-5-2-3-2-0---|--2---2-5-2-3-2-5-2-3-2-0---|--|
D|----------------------------|----------------------------|--|
A|----------------------------|----------------------------|--|
E|----------------------------|----------------------------|--|

E|----------------------------|----------------------------|--|
B|----5-----------------------|----5-----------------------|--|
G|--2---2-5-2-3-2-5-2-3-2-0---|--2---2-5-0-0-2-2-2---------|--|
D|----------------------------|----------------------------|--|
A|----------------------------|----------------------------|--|
E|----------------------------|----------------------------|--| x2
Другие песни: