Песни из кино и мультфильмовТема из к/ф "Джентльмены удачи" Текст, аккорды

0 Голосов
E|-----------------------------------------------------------------|
B|--6--8--6--5--6-----6--8--6--5--6----10-10-10--9-9--8--10--7—6-6-|
G|-----6------------------6--6-------------------------------------|
D|-----------------------------------------------------------------|
A|-----------------------------------------------------------------|
E|-----------------------------------------------------------------|

E|-----10-10--9--10--9--8--7-7-6--7--6--6--5-5--6--5--6----6---------|
B|--6----------------------------------------------------7----5—-4-4-|
G|-------------------------------------------------------------------|
D|-------------------------------------------------------------------|
A|-------------------------------------------------------------------|
E|-------------------------------------------------------------------|
Другие песни: