Переделанные песни (пародии)Rainbow, ''Temple Of The King'' Текст

0 Голосов
Intro:
e----------------------------------------------------------------------------
b---5~--3-5---3-------------3~--1-3---1---------------5~-3-5------3----------
g-----------5----5--4--2~------------4----2--4--2~-------------5----4-5-4~---
d----------------------------------------------------------------------------

e--------------------------------------------
b---3~--1-3-----1----------------------------
g------------4------2--4--2~-----------------
d--------------------------------------------

Лучше играть перебором: 5, 3, 2, 3, 1, 3, 2, 3.

C G
Когда ты захочешь вернуться
Dm Am
В эту жизнь издалека,
F G
Будет ночь как день, станет светом тень,
Am
И расстают в небе облака.

C G
Когда ты захочешь увидеть,то,
E Am
Что так любил вчера,
F G
Потеряй покой, настежь дверь открой
Am
И кому-то пожелай добра.

Припев:
Dm Am
Если бывают чудеса еще на этом свете белом,
G Am
Значит можно веселиться, забывая про печаль.
Dm Am
Знаю, весна тебе напишет школьным мелом:
F G Am
"Я вернусь, ты не скучай!".
(или "Ты меня не забывай!", это уж как кому нравится)

Следующая часть играется простым движением
большого пальца вниз по струнам.

Твой мир- это умные книги,
И заветные мечты.
Старый добрый рок, тихий уголок,
Где о детстве вспоминаешь ты.

Припев

Outro:
То же, что и Intro.
Другие песни: