Переделанные песни (пародии)Metallica "For Whom The Bell Tolls" Текст

0 Голосов
1) (End of Rhy 1)
Intro (Play 8 times)
w/Bells F#5 F#5 E5 F#5 F#5
e:---------------------------|--10--9--8--7--|--------10-------------------|
B:-------------------------------|--8--7-----------------------|
G:---------------------------|---7--6--5--4--|---------7--7--6-------------|
D:-------------------------------|--5--4-----------------------|
A:-------------------|--------4-4---4-4-------5--4-------(4)--|
E:-------------------|--------2-2---2-2------------------------|



w/Rhy 1 (Play 4 times)
----------------------------------------------|
----------------------------------------------|
----------------------------------------------|
-------------------------------------------2--|
----------------|--2--5--4--3--2--5--4--3--|--2--5--4--3--2--5--6--0--|
----------------|--0--3--2--1--0--3--2--1--|--0--3--2--1--0--2--3-----|



----------------------------------------------|
----------------------------------------------|
----------------------------------------------|
---------------------------4--|--2----------------|--(2)--------------|
|--2--5--4--3--2--5--4--3--|--2--5--4--3--2--4--5--2--|--2----------------|--(2)--------------|
|--0--3--2--1--0--3--2--1--|--0--3--2--1--0--2--3-----|--0----------------|--(0)--------------|



Rhy Fig 2
E5
------------------------------------------------------|
|--8-----7--------7--8-----7--------7--|--8-----7--------7--8-----7--------7--|
|-----9-----7--9--------9-----7--9-----|------9-----7--9--------9-----7--9----|
------------------------------------------------------|
------------------------------------------------------|
------------------------------------------------------|



G5 G5 (abrupt halt on G5)
------------------------------------------------------|
|--8-----7--------7--8-----7--------7--|--8-----7--------7--8-----7--------7--|
|-----9-----7--9--------9-----7--9-----|------9-----7--9--------9-----7--9----|
------------------------------------------------------|
------------------------------------------------------|
------------------------------------------------------|



E5
------------------------------------------------------|
|--8-----7--------7--8-----7--------7--|--8-----7--------7--8-----7--------7--|
|-----9-----7--9--------9-----7--9-----|------9-----7--9--------9-----7--9----|
------------------------------------------------------|
------------------------------------------------------|
------------------------------------------------------|



(x2)
(End of Rhy Fig 2)
G5 C5 A5
e:-----------------------------------------------------------------|
B:--8-----7--------7--8-----7--------7--|--8-----7--------7--8-----7--------7--|
G:-----9-----7--9--------9-----7--9-----|------9-----7--9--------9-----7--9----|
D:-----------------------------------------------------------------|
A:-----------------------------------------------------------------|
E:-----------------------------------------------------------------|



(Rhy Fig 3) (end of Rhy Fig 3)
e:--------------------------------------------------------|
B:--------------------------------------------------------|
G:--------------------------------------------------------|
D:-----------------------3---------------------3----------|
A:--------5---------7--|---------5---1---4--|--------5---------7--|--------5-------1---4---3--|
E:--0-0-0-3---0-0-0-5--|---0-0-0-3-------2--|--0-0-0-3---0-0-0-5--|--0-0-0-3-0-0-------2---1--|



E
Борьба там, на холме, лишь начался день,
G
Полный холод внутри.
E
Все оружья ревут, и они бегут,
C A
Через наш серый мир, ну а в мыслях тень.
E
За холм тот он убьет. Зачем? Где ответ?
G
Ведь обида - их нрав.
E
Всего пять, но им жить сквозь кромешный ад,
C A
Все свихнутся они, эту боль познав.



E E E G E E E A E E E G E E Bb F#
По кому
E E E G E E E A E E E G E E Bb G F#
звонит колокол Время идет
E E E G E E E A E E E G E E Bb F#
По кому
E E E G E E E A E E E G E E Bb G F#
звонит колокол




Interlude
E5 E5
e:---------------------------------------------------------------------------|
B:---------------------------------------------------------------------------|
G:--12--9--11----9-----------------------------------------------------------|
D:------------12----11--12--9--11-----9--10--|--2----------------------------------------|
A:---------------------------------12--------|--2----------------------------------------|
E:-------------------------------------------|--0----------------------------------------|



E5 G5
e:---------------------------------------------------------------------------|
B:---------------------------------------------------------------------------|
G:--12--9--11----9-----------------------------------------------------------|
D:------------12----11--12--9--11-----9--10----------------------------------|
A:---------------------------------12--------|--5------5-5-5--5-----5-5-5----------------|
E:-------------------------------------------|--3------3-3-3--3-----3-3-3----------------|


E5 B5
e:---------------------------------------------------------------------------|
B:---------------------------------------------------------------------------|
G:--12--9--11----9-----------------------------------------------------------|
D:------------12----11--12--9--11-----9--10--|--4----------------------------------------|
A:---------------------------------12--------|--2----------------------------------------|
E:---------------------------------------------------------------------------|

Two guitars:
E5 E5
e:-------------------7-------------------7---|--(7)------------------------------------|
B:--8------7-----------8------10--7---8------------------------------------|
G:-----9-------7--9--------9-----------------------------------------------|
D:--9------11-----9----12--9--11------9------------------------------------|
A:-----12------12---10------------12-----10--------------------------------|
E:-------------------------------------------------------------------------|



E5 G5
e:-------------------7-------------------7---------------------------------|
B:--8------7-----------8------10--7---8------------------------------------|
G:-----9-------7--9--------9-----------------------------------------------|
D:--9------11-----9----12--9--11------9------------------------------------|
A:-----12------12---10------------12-----10--|--5------5-5-5--5-----5-5-5--------------|
E:-------------------------------------------|--3------3-3-3--3-----3-3-3--------------|



E5 B5
e:------------------7-------------------7---------------------------------|
B:--8------7----------8------10--7---8------------------------------------|
G:-----9------7--9--------9-----------------------------------------------|
D:--9------11----9----12--9--11------9------|--4--------------------------------------|
A:-----12-----12---10------------12-----10--|--2--------------------------------------|
E:------------------------------------------------------------------------|


Второй куплет играется так-же как и первый.



В небеса брось свой взгляд, свой последний взгляд,
Ведь умрешь скоро ты,
Мощный звон - небо он все заполнить рад,
Цель мертва, его душа полна силой тьмы.
Он не знал ничего, но беды не скрыть,
Слышен грохот пустой.
Был рассвет, теперь нет, лишь желанье жить,
Ведь их взор был затмлен местью их слепой.



e:----------------------------------------------------|
B:----------------------------------------------------|
G:----------------------------------------------------|
D:--9----------11--11--11--|--9----------11--11--11--|--12--12--12------------|
A:--7----------9---9---9---|--7----------9---9---9---|--10--10--10------------|
E:----------------------------------------------------|
Другие песни: