ПасошЛето Текст, аккорды

0 Голосов
Вступление: (боем)
---x---------x---------x-------
--11---------0---------0-------
---9---------11--------9-------
---x---------x---------x-------
---x---------x---------x-------
---х---------x---------x-------

A5 D5 B5 A5
я хочу чтобы всегда было лето
A5 D5 B5 A5
хочу чтоб никогда не было холодно
A5 D5 B5 A5
и мы могли гулять с ночи до рассвета
A5 D5 B5 A5
на улицах любимого города
A5 D5 B5 A5
Ооооооооооооооооооооооооооо х3

---x---------x---------x-------
--11---------0---------0-------
---9---------9--------11-------
---x---------x---------x-------
---x---------x---------x-------
---х---------x---------x-------

A5 D5 B5 A5
я хочу чтобы всегда было жарко
A5 D5 B5 A5
хочу чтобы зима быстрее закончилась
A5 D5 B5 A5
и мы могли бы спать ночью в парках
A5 D5 B5 A5
и делать все то что захочется

A5 D5 B5 A5
я хочу чтобы всегда было лето
A5 D5 B5 A5
хочу чтобы всегда с осени до весны
A5 D5 B5 A5
хочу чтобы всегда было лето
A5 D5 B5 A5
и чтобы никогда не было зимы

A5 D5 B5 A5
хочу чтобы всегда было лето
A5 D5 B5 A5
хочу чтобы всегда с осени до весны
A5 D5 B5 A5
хочу чтобы всегда было лето
A5 D5 B5 A5
и чтобы никогда не было зимы
Другие песни: