Парк ГорькогоБез тебя Текст, аккорды

0 Голосов
Вступление:
Esus2 C/F Esus2 C/F Esus2 C/f Esus2 C/F
G----------0-------------------------------0-------------
D---4--------------4------2------4--------------4------2- - 3p.
A--2----3--------2------3------2------3------2------3--3-
E-0----1-------0------1------0------1------0----0-1------

Esus2 C/F Esus2 C/F Esus2 C/f Esus2 C/F
Что-то внутри как у стай соединяет нас
Esus2 C/F Esus2 C/F Esus2 C/f Esus2 C/F
Прости, прости, с собой возьми глоток моих фраз

Проигрыш:
Esus2 C/F Esus2 C/F Esus2 C/f Esus2 C/F
G----------0-------------------------------0-------------
D---4--------------4------2------4--------------4------2-
A--2----3--------2------3------2------3------2------3--3-
E-0----1-------0------1------0------1------0----0-1------

Широким морем я буду плыть по дальним странам колесить
Esus2 C/F Esus2 C/F Esus2 C/f Esus2 C5
Поймаю ветер, с ним полечу чтоб на тебя надеть любовь-парчу

Em/g C Em/g C
Мое сердце без тебя словно дикая птица без неба
Em/g C Em/g C
Без тебя моя душа словно слабая лань без леса
G C D Em
Без тебя мои глаза, как налитые груди без чада
Em/g C C
Без тебя моя слеза, как роса без утра падает...

Проигрыш: Esus2 C/F - 8p.

Esus2 C/F Esus2 C/F Esus2 C/f Esus2 C/F
G----------0-------------------------------0-------------
D---4--------------4------2------4--------------4------2-
A--2----3--------2------3------2------3------2------3--3-
E-0----1-------0------1------0------1------0----0-1------

Знаю где ты, знаю где я, лишь километры между нами
Esus2 C/F Esus2 C/F Esus2 C/f Esus2 C5
Только шепни - я подхвачу, песню свою тебе шепчу

Мое сердце без тебя словно дикая птица без неба
Без тебя моя душа словно слабая лань без леса
Без тебя мои глаза, как налитые груди без чада
Без тебя моя слеза, как роса без утра падает...

Мое сердце без тебя словно дикая птица без неба
Без тебя моя душа словно слабая лань без леса
Без тебя мои глаза, как налитые груди без чада
Без тебя моя слеза, как роса без утра падает...
Другие песни: