Ногу СвелоИз Алма-Аты Текст

0 Голосов
Intro:
1|-------6-10--10-8-6-8-6----10-8-6-8-6------5-6-----|
2|-8-8-8------------------8-------------8--8-----8-6-|

Gm Eb F Gm
В багаж ты не сдашь духи и лак
Gm Eb F Gm
Тонгаш за кормой твой Чимбулак
A# F A#
Ляжет лайнер на крыло
Eb F
И мигнет красное табло

Припев:
Gm
Из Алма-Аты
A# Eb
Ты ко мне летела
A# Gm
Так меня хотела
Gm Eb F
Вновь увидеть ты
G
Синие холмы
A# Eb
Вспыхнут ярким светом
A# Gm
И на месте этом
Gm Eb F
Вырастут цветы

Gm Eb F Gm
Москва как всегда твой рейс ждала
Gm Eb F Gm
Закат степь почти уже спала
A# F A#
Но раздался вой турбин
Eb F
И остался в небе черный дым

Припев:
Gm
Из Алма-Аты
A# Eb
Ты ко мне летела
A# Gm
Так меня хотела
Gm Eb F
Вновь увидеть ты
G
Синие холмы
A# Eb
Вспыхнут ярким светом
A# Gm
И на месте этом
Gm Eb F
Вырастут цветы

Solo:
4|---5--8-5-1-5-3-8-5----5--8-5-1-5-3-8-5-
5|-5-------------------5------------------
6|----------------------------------------

4|--------------------------------|
5|-1-5-3-3-5-3-1--1-----1---------|
6|------3-3---3-3-5-1-------------|
Другие песни: