НогганоТакова любовь (ft AK47 & Guf & T9) Текст, аккорды

0 Голосов
Intro: F#m F#m C#m C#m
D E A C#7

Удобнее при игре соло использовать следующую постановку аккордов.
F#m C#m D E A C# (C#7)
E||--5----5----4----4----5----7----5----4----||
B||--7----7----5----5----7----9----5----6----||
G||--6----6----6----6----7----9----6----6(4)-||
D||--4----4----6----6----7----9----7----6----||
A||--4----4----4----4----5----7----7----4----||
E||---------------------------0----5---------||

При игре ритма(перебора) стандартные:
F#m F#m C#m C#m
D E A C#7

Соло:
F#m C#m
E||--4----5-------------|--------7--5--4-----|--4------------------|--------5--4--------|
B||------------7--------|-----------------7--|-------5-------------|--------------7--5--|
G||---------------------|--------------------|------------6--------|--------------------|
D||--4------------------|--------------------|---------------------|--------------------|
A||---------------------|--------------------|--4------------------|--------------------|
E||---------------------|--------------------|---------------------|--------------------|

D E
|---------------------|--0---------------------|
|--7------------------|---------------3--2--0--|
|-------7-------------|------------1-----------|
|------------7--------|-------2----------------|
|--5------------------|--2---------------------|
|---------------------|------------------------|

A C#
----------------------|------------4---------||
--3----2--------------|-----------------6----||
-----------------2----|--6-------------------||
------------2---------|-------6--------------||
--0-------------------|----------------------||
----------------------|--4-------------------||
Другие песни: