Наутилус ПомпилиусЗверь Текст, аккорды

0 Голосов
riff 1: riff 2: riff 3:
3|---------------| 3|---------------| 3|----------5----|
4|-2-2--0-2-4-4--| 4|-5-5--5-7-5-4--| 4|-7-7--5-7---7--|
5|---------------| 5|---------------| 5|---------------|

riff 4: riff 5: riff 6:
3|---------------| 3|---------------| 3|---------------|
4|----------5----| 4|-5-5-5-4-------| 4|-5-4-0-2-------|
5|-7-7--5-7---7--| 5|---------------| 5|---------------|

Verse:
riff 1
E
Я здесь, я пришел к тебе
riff 2
G
Пришел вопреки судьбе
riff 1
E
С небес льется лунный свет
riff 2
G
Я - зверь, мне покоя нет
riff 3
A
Крадусь в темноте как тень
riff 4
Em
В душе проклиная день
riff 3 riff 5
A C B
Когда я всего лишь призрак в серой толпе

Ты помнишь? Давным-давно
Я жил как во сне легко
Но раненный кем-то волк
Вонзил мне клыки в плечо...
И я стал таким как он
Невидимым ясным днем
Убийца и злой хозяин в мире ночном

Chorus:
C D
Ты - невинный ангел
Em D
Ангел поднебесья
C
В этой жизни странной
riff 6
Ты не моя

За тобой тень зверя
Вы повсюду вместе
А теперь поверь мне
Зверь этот я!

Позволь, я коснусь тебя
Войдет в кровь звериный яд
И лунный священный свет
В тебе свой оставит след
Ты будешь змеи быстрей
Всех женщин земных нежней
Позволь мне тебя коснуться или убей!

Chorus.

3|---------------------|
4|---9-9/10-9-7--------|
5|-7------------10-9-7-|
6|---------------------|

3|------------------12-|
4|---9-9/10-9-7--------|
5|-7------------10-----|
6|---------------------|

Смотри же в мои глаза
Твой взгляд не понять нельзя
Ты хочешь меня убить
Убить и про все забыть
А ночь, словно боль, темна
Зверь здесь, и он ждет тебя
Ты чувствуешь вкус охоты, зверь этот - я!
Другие песни: