Наутилус ПомпилиусВенера Текст, аккорды

0 Голосов
Intro: 
Em Am
1------------------------------------0--0-0---------------0--0-0-------
2-0--0-0--------------0--0-0----------------3-1-----1-3----------3-1---
3--------2-0-----0-2---------2-0----------------2-2------------------2-
4------------2-2-----------------2-------------------------------------
5----------------------------------------------------------------------
6----------------------------------------------------------------------

Em B7
1----------------------------------------------------------------------
2-0--0-0--------------0--0-0----------0--0-0-3-0-4-0-7-0--0--0-0-4-0-7-
3--------2-0-----0-2---------2-0---------------------------------------
4------------2-2-----------------2-------------------------------------
5----------------------------------------------------------------------
6----------------------------------------------------------------------

Куплет:
Em Am B7
5-------0-2-2-0---- 4-------0-2-2-0---- 4-----0---1---4----
6-0-0-3---------3-- 5-0-0-3---------3-- 5-2-2---2---2---2--

Em
Однажды вечером в саду,
Em
Я встретил девушку одну,
Am
Она гуляла при луне,
Am
Я шел за ней в тени аллей,
Em
Она заметила меня,
Em
И предложила быть со мной,
B7
А наши тени между тем,
B7
Слились в одну между собой,
B7
Я крикнул:

C Em
Аллелуйя, золотой,
B7 Em
Унеси меня с собой,
C Em
Над собором, над водой,
F B7
Над холодною землей.

Em
Ее спросил я: Где живешь?,
Em
Она сказала: Высоко,
Am
И показав наверх рукой,
Am
Шепнула как ее зовут:
Em
Венера. Мы простились с ней,
Em
Всходило солнце, звезды гасли,
B7
И наши тени на траве,
B7
Исчезли вместе в тот же час,
B7
Я крикнул:

C Em
Аллелуйя, золотой,
B7 Em
Унеси меня с собой,
C Em
Над собором, над водой,
F B7
Вслед за облачной звездой.
Другие песни: