Наутилус ПомпилиусНа берегу безымянной реки Текст

0 Голосов
Intro: 
E|-----13-----12---------------------10---------|
B|--------15-----11----10-------8---------------|
G|--14-----14-----14--------14-12---------------|

--6------5-----3---1--3-5-3-1-0-1-5-10-12----|
-------------3-------------------3-----------|
-------7---3---------------------------------|
-----8---------------------------------------|
---------------------------------------------|
---------------------------------------------|

-----13-----12-----10--------------10---------|
--10-----10-----10--------11----10-------8----|
--------------------------14-12---------------|
----------------------------------------------|
----------------------------------------------|
----------------------------------------------|

--6------5-----3---1--3-5-3-1---------0-1-5-10-12-10----|
-------------3-------------------3-------------------10-|
-------7---3--------------------------------10-7--------|
-----8--------------------------------------------------|
--------------------------------------------------------|
--------------------------------------------------------|

--5-13-----12-----10--------------10---------|
--------10-----10--------11----10-------8----|
-------------------------14-12---------------|
---------------------------------------------|
---------------------------------------------|
---------------------------------------------|

--6------5-----3---1--3-5-3-1-0-1-5-10-12----|
-------------3-------------------3-----------|
-------7---3---------------------------------|
-----8---------------------------------------|
---------------------------------------------|
---------------------------------------------|

-----13-----12-----10--------------10---------|
--10-----10-----10--------11----10------8-----|
--------------------------14-12---------------|
----------------------------------------------|
----------------------------------------------|
----------------------------------------------|

--6------5-----3---1--3-5-3-1---------0-1-5-10-12-10----||
-------------3-------------------3-------------------10-||
-------7---3--------------------------------10-7--------||
-----8--------------------------------------------------||
--------------------------------------------------------||
--------------------------------------------------------||

Em Bm
Мы будем жить с тобой в маленькой хижине
Am Bm Em
На берегу очень дикой реки,
Em Bm
Никто и никогда не будет обиженным
Am Bm Em
На то, что когда-то покинул пески.

C G Am Em
На берегу очень дикой реки,
C G Am Em
На берегу этой тихой реки,
A Em Am Em
В дебрях чужих у священной воды,
Am D G B Em
В теплых лесах безымянной реки.
Другие песни: