Народные и застольные песниВ траве сидел кузнечик Текст

0 Голосов
Main Guitar: 
1|-5-|-0-5-0-5-|-4-4---4-|-0-4-0-4-|-5-5---5-|

1|-0-5-0-5-|-4-4---4-|-0-4-0-4-|-5-5---5-|

1|-7-777-7-|-8-888-8-|-8-7-5-4-|-5-5---5-|

1|-7-777-7-|-8-888-8-|-8-7-5-4-|-5-------|

Бас:
6|-2-4-|-5---7-5-|-4---0-2-|-4---5-4-|-5---2-4-|

6|-5---7-5-|-4---0-2-|-4---5-4-|-5-----5-|

5|-------5-|-3-3---3-|-2-2-----|---------|
6|-7-7-----|---------|-------7-|-5-----5-|

5|-------5-|-3-3---3-|-2-2-----|---------|
6|-7-7-----|---------|-------4-|-5-------|

Соло:
1|----|-12-----11---|-10----------|-10-----12---|-------------|
2|-10-|-----10---10-|--9--------9-|-----9-----9-|-10-------10-|

1|-12-----11---|-10----------|-10-----12---|-------------|
2|-----10----10|--9--------9-|-----9-----9-|-10----10-12-|

1|-12----12------|-12-12-12-10-|-12----------|
2|----------12-|-13--------9-9-|-10----10-12-|

1|-12----12------|-12-12-12-10-|-------------|
2|----------12-|-13--------9-9-|-10----------|
Другие песни: