Народные и застольные песниЭй, ухнем Текст, аккорды

0 Голосов
Am Dm Am Dm Am F Dm C Dm
e------------------------1-0-1-0----
B-1---3---0-1---3------1-2-1-----3--
G-2-2-2-2---2-2-2-2----2-3-0-----2--
D-2---0-2---2---0-2----3---------0--
A-------0---------0-----------------
E-----------------------------------
Эй, ухнем! Эй, ухнем! Еще ра-а-аз.

Am Dm Am Dm Am
e--------------------
B-1---3---0-1---3----
G-2-2-2-2---2-2-2-2--
D-2---0-2---2---0-2--
A-------0---------0--
E--------------------
Эй, ухнем! Эй, ухнем!
Другие песни: