Мумий ТролльКонтрабанды Текст, аккорды

0 Голосов
Вступление: Dm | Gm | C | A }x2 

Dm
E|-1-1-1-----------------------1-1----------------|
B|-3-3-3-----------------------3-3----------------|
G|-2-2-2----------2-2-3-3-3-2--2-2----------------|
D|-0-0-0--0-0-3-3--------------0-0----------------|
A|------------------------------------------------|
E|------------------------------------------------|

Gm
E|-3-----------------------3----------------------|
B|-3-----------------------3----------------------|
G|-3----------0-0-2-2-2-0--3----------------------|
D|-5------0-0--------------5----------------------|
A|-5-----------------------5----------------------|
E|-3--3-3------------------3----------------------|

C
E|-0-----------------------0----------------------|
B|-1-----------------------1----------------------|
G|-0----------0-0-2-2-2-0--0----------------------|
D|-2------2-2--------------2----------------------|
A|-3--3-3------------------3----------------------|
E|------------------------------------------------|

A
E|-0----------------------------------------------|
B|-2----------------------------------------------|
G|-2----------2-2-3-3-3-2-------------------------|
D|-2------2-2-------------------------------------|
A|-0--0-0-----------------------------------------|
E|------------------------------------------------|

Dm
E|-1----------------------------------------------|
B|-3----------------------------------------------|
G|-2------------2-2-3-3-3-2-----------------------|
D|-0--0-0-3-3-------------------------------------|
A|------------------------------------------------|
E|------------------------------------------------|

Gm
E|-3----------------------------------------------|
B|-3----------------------------------------------|
G|-3----------0-0-2-2-2-0-------------------------|
D|-5------0-0-------------------------------------|
A|-5----------------------------------------------|
E|-3--3-3-----------------------------------------|

C
E|-0----------------------------------------------|
B|-1----------------------------------------------|
G|-0----------0-0-2-2-2-0-------------------------|
D|-2------2-2-------------------------------------|
A|-3--3-3-----------------------------------------|
E|------------------------------------------------|

A
E|-0----------------------------------------------|
B|-2----------------------------------------------|
G|-2----------2-2-3-3-3-2-------------------------|
D|-2------2-2-------------------------------------|
A|-0--0-0-----------------------------------------|
E|------------------------------------------------|

Dm
Нам бы на Москву
Dm Gm
Пусть десять раз она неладна
Gm C
Закинуть надо б контрабандой
C A
Пару контейнеров тепла сердец

A Dm
Пятьдесят грамм нежности на сдачу
Dm Gm
Моей улыбки вам в придачу
Gm C
И ярких красок раскисать
A Dm
Такую серую и нудную зиму

Припев:
Gm C
Уууху, уууху
A Dm
Такую серую и нудную зиму
Gm C
Уууху, уууху
A
Такую...

Dm
Нам бы взять смешать
Dm Gm
Венеру, Марс еще Юпитер
Gm C
И влить на Магадан и Питер
C A
Такой заманчивый коктейль
Ага

И лишь бы граждане не сбились
Dm Gm
С пути и хорошо б не спились
Gm C
Но не забыли угольками закидать
A Dm
Такую серую и нудную зиму

Припев:
Gm C
Уууху, уууху
A Dm
Такую серую и нудную зиму
Gm C
Уууху, уууху
A
Такую...

Dm
Нас может быть и не поймут
Dm Gm
Тебе глоток еще победа
Gm C
Нам потепление не братна
C A
Не за того берут

A Dm
Во Ледовитом до Чукотки
Dm Gm
Паруса реют нашей лодки
Gm C
Как бы совсем не угореть
A Dm
И добрым словом прихватить такую нежную зиму

Припев:
Gm C
Уууху, уууху
A Dm
Такую серую и нудную зиму
Gm C
Уууху, уууху
A
Такую...
Gm C
Уууху
A
Такую...
Другие песни: