MolotovHere We Kum Текст, аккорды

0 Голосов
M

О
L
О 8===========D - - - HERE WE KUM
T
О
V


1ntro

e|---------------------12-12-12--------------
b|-------------------------------------------
g|----------9-------9-----------7-7----------
d|----------------------------------9-------- x4
a|-7-7-7-7----7-7-7--------------------------
e|-------------------------------------------



Versus

(palm-mute)
e|-------------------------------------------
b|-------------------------------------------
g|-------------------------------------------
d|-------------------------------------------
a|-7-7-7-7-7-9-10-7---7-7-7------------------ x4
e|--------------------------9-10-9-7---------

e|-------------------------------------------
b|-------------------------------------------
g|-------------------------------------------
d|-------------------------------------------
a|-7-7-7-7-7-9-10-7---7-7-7------------------ x4
e|--------------------------9-10-9-7---------



Chorus

e|---------------------12-12-12--------------
b|-------------------------------------------
g|----------9-------9-----------7-7----------
d|----------------------------------9-------- x4
a|-7-7-7-7----7-7-7--------------------------
e|-------------------------------------------


VERSE (...)

СНОRUS(...)X2


Guitar (alone)

e|-------------------------------------------
b|-------------------------------------------
g|-------------------------------------------
d|-x-x-x---x-x-x------x-x-x---x-x-x---------- x2
a|-x-9-9---x-9-9------x-x-x---x-x-x----------
e|-x-x-x---x-x-x------x-9-9---x-9-9----------


e|-------------------------------------------
b|-------------------------------------------
g|-------------------------------------------
d|-x-x--x----x-x--x-------x-x--x----x-x--x--- x2
a|-x(9)(9)---x(9)(9)------x-x--x----x-x--x---
e|-x-x--x----x-x--x-------x(9)(9)---x(9)(9)--



e|---------------------12-12-12--------------
b|-------------------------------------------
g|----------9-------9-----------7-7----------
d|----------------------------------9-------- x4
a|-7-7-7-7----7-7-7--------------------------
e|-------------------------------------------



СНОRUS(...)X2

THANKS...
Другие песни: