Modest MouseWild Pack Of Family Dogs Текст

0 Голосов
-------------------------------------------------------------------------------

Wild Pack Of Family Dogs - Modest Mouse
-------------------------------------------------------------------------------
Tabbed by:Paul1pb
Email:stalkcarracer11@hotmail.com

Tuning:

Strumming:U U U ^ U U
e|---------------------------------------------------------------------------|
B|---------------------------------------------------------------------------|
G|----------5-5-5-5----------------------------------------------------------|
D|----------5-5-5-5--5-5-----------------------------------------------------|
A|----------3-3-3-0--5-5-----------------------------------------------------|
E|-------------------3-3-----------------------------------------------------|

Strumming:U U U ^ U U U
e|---------------------------------------------------------------------------|
B|---------------------------------------------------------------------------|
G|----------5-5-5-5--7--5--0-------------------------------------------------|
D|----------5-5-5-5--7--5--0-------------------------------------------------|
A|----------3-3-3-0--5--5--x-------------------------------------------------|
E|---------------------------------------------------------------------------|

That is the whole song as far as I can hear. E-mail me if you find it
to be accurate or inaccurate in any way and if something is wrong or not.

HAVE FUN!


| / slide up
| slide down
| h hammer-on
| p pull-off
| ~ vibrato
| + harmonic
| x Mute note
===============================================================================
Другие песни: