Modest MouseTrailer Trash Текст

0 Голосов
#----------------------------------PLEASE NOTE--------------------------------#

#This file is the author's own work and represents their interpretation of the#
#song. You may only use this file for private study, scholarship, or research.#
#-----------------------------------------------------------------------------#
#-- File created with Instab - http://www.pconline.com/~smcarey/instab.html --#
#-----------------------------------------------------------------------------#

Author/Artist: Modest Mouse
Title: Trailer Trash
Transcribed by: Thierry Dufour
Email: thierry_duf4@hotmail.com

This is probably wrong but at least, I'm trying to get some modest mouse tabs on

the internet.
I just put the main chords and riffs, if you want all the fancy picking, just wo

rk it out by yourself.

--|-------------------|------------------|------------------------------------|
--|-------------------|------------------|------------------------------------|
--|--------7---5---5--|--------7---5--5--|------------------------------------|
--|---5----7---5---5--|---5----7---5--5--|------------------------------------|
--|---5----5---3---3--|---5----5---3--3--|------------------------------------|
--|---3---------------|---3--------------|------------------------------------|
G D C C G D C C Strum all the way w/ palm muting

--|------------------|----------------|-------------|--------------|----------|
--|------------------|----------------|-------------|--------------|----------|
--|------------------|----------------|-------------|--------------|----------|
--|---5/2-2-/0-0h2---|----------------|-------------|--------------|----------|
--|------------------|-5/3-3-/2-2-/3-3|-3-5-7-5-3---|--3-5-7-5-----|----------|
--|------------------|----------------|-------------|--------------|----------|
Bassline G D C C

--|------------|------------|-----------|-----------|-------------------------|
--|------------|------------|-----------|-----------|-------------------------|
--|------------|------------|-----------|-----------|-------------------------|
--|------------|------------|-----------|-----------|-------------------------|
--|------------|-5-7-10-7-5-|-3-5-7-5-3-|-3-5-7-5---|-------------------------|
--|--3-5-7-5-3-|------------|-----------|-----------|-------------------------|
Then G D C C

-|----------------------------------------------------------------------------|
-|----3-3-1-3-1---------------------------------------------------------------|
-|--------------0-------------------------------------------------------------|
-|----------------------------------------------------------------------------|
-|----------------------------------------------------------------------------|
-|----------------------------------------------------------------------------|
This is a little riff played in the middle
Другие песни: