Modest MouseSleepwalking Текст

0 Голосов
A beautiful remake of Santo and Johnny's Sleepwalker


Intro:

e[-8/-3--1-3-3/4-3-1--]
B[-8/-5--3-5-5/6-5-3--]
G[--------------------]
D[--------------------]
A[--------------------]
E[--------------------]

Verse: (Palm Mute all strings except the B string
C Am
e[---------------------------------------------------]
B[-------1-----------1-----------1-----------0-------]
G[-----0---0-------2---2-------2---2-------0---0-----]
D[---2-------2---2-------2---3-------3---0-------0---]
A[-3-----------0-------------------------------------]
E[-------------------------1-----------3-------------]
Другие песни: