Modest MouseShit Luck Текст

0 Голосов
MODEST MOUSE - Shit Luck


Tabbed by: Truly Ninja
Email: trulyninja@hotmail.com

Tuning:EADGBe

Riff 1
e|---------------------------------------------------------------------------|
B|---------------------------------------------------------------------------|
G|---------------------------------------------------------------------------|
D|----------7h9--------------------------------------------------------------|
A|------7h9-----7h9----------------------------------------------------------|
E|--7h9----------------------------------------------------------------------|

Riff 2 ***make sure the bends are HUGE***
e|---------------------------------------------------------------------------|
B|--------------------------10b---10b---10b---10b----------------------------|
G|----9b---9b---9b---9b---7-----7-----7-----7--------------------------------|
D|--7----7----7----7---------------------------------------------------------|
A|---------------------------------------------------------------------------|
E|---------------------------------------------------------------------------|

Lyrics
This plane is definitely crashing!
This boat is obviously sinking!
This building's totally burning down!
And my...
And my heart is slowly drying up!
Другие песни: