Modest MouseOne Chance Текст

0 Голосов
-------------------------------------------------------------------------------

ONE CHANCE - Modest Mouse
-------------------------------------------------------------------------------
Tabbed by:sean
Email:ilovedollface117@yahoo.com

Tuning:

e|--------------------------------------------------------------------------|
B|--------------------------------------------------------------------------|
G|--4/5--0------------------------------------------------------------------|
D|--4/5--0--5-5-5-55-4-4-44--2-2-2-22-22-4-22-------------------------------|
A|--2/3--0--5-5-5-55-5-5-55--3-3-3-33-33-3-33-2-2-2-2...--------------------|
E|--------------------------------------------3-3-3-3...--------------------|

there is probably more, but i stumbled across that while messing around one
day, and i am pretty sure it is right, sounds good to me.

/ = slide up

============================================================================
Другие песни: